Hợp âm - tab: In una notte d'estate - Le Vibrazioni - cảm âm - lời bài hát

Cảm âm, tablature, hợp âm, tabs guitar, ukulele, lời bài hát: In una notte d'estate - Le Vibrazioni - ( Date: sat, 15 may 2004 From: Vigan Dario (e-mail:the.glas...)

--
Date: sat, 15 may 2004
From: Vigan Dario (e-mail:the.glass.prison@tiscali.it)
Subject: CHORD: in una notte d'estate
Artist: Le vibrazioni
Song Title: in una notte d'estate

INTRO:[REm][REm7+][REm7][REm7+] (pulito)
1chitarra


e-----5---5----5-----5-----
B------6---6----6-----6----
G--7----6---5----6-----6---
D--------------------------
A--------------------------
E--------------------------


2chitarra


e-10------9----8------9--------
B-----10---10----10----10------
G-------10---10----10----10----
D-0-------------------0----12--
A------------------------------
E------------------------------


(continua come INTRO)
[REm] Baciami [REm7+][REm7]
[REm7+] baciami an[REm]cora
e concentrati ti prego non vorrei
che fosse l'ultima volta
Sai accendermi
accendi il mio fuego
cosi' che io possa darti nuovamente
la mia anima in pasto shake

STRUMENTALE:

Fe[REm]riscimi
feriscimi ancora
e bailando sul mio ventre puoi chinarti
per cogliere il mio seme

Ma sa[SOLm]ra' perche'


e-15------14---13-----14-------
B-----15---15----15------------
G-------15---15----15----------
D------------------------------
A------------------------------
E------------------------------

sei cosi' lon[LA]tana


e--------5-----5--------
B---5------5-----5------
G---6--------6-----6----
D---7-------------------
A---7-------------------
E---5-------------------

che tu gia' [LA#] vivi sette ore nel passato
di ogni mio [LA] giorno


e---------------------
B---------------------
G---------------------
D-------2-------------
A-1---1-----1-1-0-----
E---0-----------------


St[REm]ringimi ancora come
[SOLm] quella volta in spiaggia


e-10------9----8------7--------3--5-6-3--5-6----
B-----10---10----10------6----------------------
G-------10---10----10------7/3------------------
D-0---------------------------------------------
A-----------------------------------------------
E-----------------------------------------------

con la [LA] luna in una notte d'es[REm]tate

Stringimi ancora come quella volta in spiaggia
con la luna in una notte d'estate uh

Fe[REm]riscimi
feriscimi ancora
e concentrati ti prego
non vorrei che fosse l'ultima volta

Ma sa[SOLm]ra' perche'
sei cosi' lon[LA]tana
che tu gia' [LA#] vivi sette ore nel passato
di ogni mio [LA] giorno

St[REm]ringimi ancora come
[SOLm] quella volta in spiaggia
con la [LA] luna in una notte d'es[REm]tate
Stringimi ancora come
quella volta in spiaggia
con la luna in una notte d'estate
laaaaih lalalalailah
lailaaaah lailah lailaaaah
stringimi ancora come
quella volta in spiaggia
con la luna in una notte d'estate
in una notte d'estate
in una notte d'estate (sfumando)

Danh sách hợp âm

Hợp âm: In una notte d'estate - Le Vibrazioni - cảm âm, tab guitar, ukulele - lời bài hát
Có thể bạn thích