Hợp âm - tab: Genesis - Jorma Kaukonen - cảm âm - lời bài hát

Cảm âm, tablature, hợp âm, tabs guitar, ukulele, lời bài hát: Genesis - Jorma Kaukonen - ( "GENESIS" off LP "Quah" (1974) Tabbed by: Les Gibson ...)

--

-------------------------------------------------------------------------------

"GENESIS" off LP "Quah" (1974)


-------------------------------------------------------------------------------

Tabbed by: Les Gibson

Tuning: Standard

Everybody has their own unique picking style; use yours! The following tab
replicates the song, but not absolutely perfectly (impossible). It sounds
just like the record though.

CAPO SECOND FRET. All chords are given in relation to capo.

--Intro:

[G] [D/F#] [Em7] [G]

e|------------------------------|------------------------------|
B|-----0-----0-------3--------3-|--0--------0-------0--------0-|
G|--0----0-----0-----------2----|--0----0-------0---0-----0----|
D|--0------------0------0-------|-----2-------0--------0-------|
A|------------------------------|------------------------------|
E|--3------3---------2----------|--0------0---------3----------|


[G] [D] [Em]

e|-----------3-------2----------|--0---------------0-----------|
B|-----0-------0-----------3----|--0--------0--------------0---|
G|--0----0-------0------2-----2-|-------0-------0-------0------|
D|--0----------------0----------|-----2-------2-------2------2-|
A|------------------------------|------------------------------|
E|--3------3--------------------|--0------0--------0------0----|


[A] [Asus4] [A] [G] [D/F#] [Em]

e|-------------------------------|---------------2-----0-------|
B|-2--------2------2h3-----2-----|---0-----------3--------0----|
G|-2----2-------2-------2------0-|---0------0--------2-------0-|
D|----2-------2-------2------2---|---0----0---0----0-----------|
A|-0------0--------0------0------|-----------------------------|
E|-------------------------------|-3----3--------2--------0----|


[A] [Asus4] [A] [G] [D/F#] [Em]

e|-------------------------------|---------------------0-------|
B|-2--------2------2h3-----2-----|---0-----------3--------0----|
G|-2----2-------2-------2------0-|---0------0----2---2-------0-|
D|----2-------2-------2------2---|---0----0---0----0-----------|
A|-0------0--------0------0------|-----------------------------|
E|-------------------------------|-3----3--------2--------0----|


--This plays in verse:

[A] [Asus4] [A] [G] [D/F#] [Em]

e|-------------------------------|---------------2-----0-------|
B|-2--------2------2h3-----2-----|---0-----------3--------0----|
G|-2----2-------2-------2------0-|---0------0--------2-------0-|
D|----2-------2-------2------2---|---0----0---0----0-----------|
A|-0------0--------0------0------|-----------------------------|
E|-------------------------------|-3----3--------2--------0----|


[A] [Asus4] [A] [G] [D/F#] [Em]

e|-------------------------------|---------------------0-------|
B|-2--------2------2h3-----2-----|---0-----------3--------0----|
G|-2----2-------2-------2------0-|---0------0----2---2-------0-|
D|----2-------2-------2------2---|---0----0---0----0-----------|
A|-0------0--------0------0------|-----------------------------|
E|-------------------------------|-3----3--------2--------0----|



--This plays in the break between verses:

[A] [A7] [A] [A7] [A] [A7]

e|----5---3---5-----3---------|------5---5---4--3------3----------|
B|----2---2-----2---2---------|----2-----2---2--2------2----------|
G|----2---2-------2------5b-2-|----2-----2---2--2----2-------5b-2-|
D|----2----------------2------|----------------------------2------|
A|--0---0---0-------0---------|--0-----0---0----0---0----0--------|
E|----------------------------|-----------------------------------|


[A]

e|-----------------------------------|-----------------------------------|
B|------3p2--------------3p2---------|------3p2--------------3p2---------|
G|------2-----5---2------2-----5---2-|------2-----5---2------2-----5---2-|
D|----2---------2------2---------2---|----2---------2------2---------2---|
A|--0-------0--------0-------0-------|--0-------0--------0-------0-------|
E|-----------------------------------|-----------------------------------|


[A]

e|-----------------------------------|-----------------------------------|
B|------3p2--------------3p2---------|------3p2--------------3p2---------|
G|------2-----5---2------2-----5---2-|------2-----5---2------2-----5---2-|
D|----2---------2------2---------2---|----2---------2------2---------2---|
A|--0-------0--------0-------0-------|--0-------0--------0-------0-------|
E|-----------------------------------|-----------------------------------|


[A] [Asus4] [A] [G] [D/F#] [Em]

e|-------------------------------|---------------2-----0-------|
B|----2------------2h3-----2-----|---0-----------3--------0----|
G|----2-------2---------2------0-|---0------0--------2-------0-|
D|----2---------------2------2---|---0----0---0----0-----------|
A|-0--------0-----0-------0------|-----------------------------|
E|-------------------------------|-3----3--------2--------0----|


[A] [Asus4] [A] [G] [D/F#] [Em]

e|-------------------------------|---------------------0-------|
B|-2--------2------2h3-----2-----|---0-----------3--------0----|
G|-2----2-------2-------2------0-|---0------0----2---2-------0-|
D|----2-------2-------2------2---|---0----0---0----0-----------|
A|-0------0--------0------0------|-----------------------------|
E|-------------------------------|-3----3--------2--------0----|


[A] Time has come for us to [G]pause[D/F#][Em]
[A] And think of living as it [G]was[D/F#][Em]
[A] Into the future we must [G]cross, must[D/F#] cross[Em]
[A] I'd like to go with you[G][D/F#][Em]
[A] And I'd like to go with you[G][D/F#][Em]

You say I'm harder than a wall
A marble shaft about to fall
I love you dearer than them all, them all
So let me stay with you
So let me stay with you

And as we walked into the day
Skies of blue had turned to grey
I might have not been clear to say, to say
I never looked away
I never looked away

And though I'm feeling you inside
My life is rolling with the tide
I'd like to see it be an open ride
Along with you
Going along with you

The time we borrowed from ourselves
Can't stay within a vaulted well
And living turns into a lender's will
So let me come with you
And let me come with you

And when we came out into view
And there I found myself with you
When breathing felt like something new, new
Along with you
Going along with you

--Final chord:

e|-[A]--|
B|-2-|
G|-2-|
D|-2-|
A|-0-|
E|---|

Great song, this. Please comment!

| / slide up
| \ slide down
| h hammer-on
| p pull-off
| ~ vibrato
| + harmonic
| x Mute note

Danh sách hợp âm

Hợp âm: Genesis - Jorma Kaukonen - cảm âm, tab guitar, ukulele - lời bài hát
Có thể bạn thích