Hợp âm - tab: Freedom Song - Thin Lizzy - cảm âm - lời bài hát

Cảm âm, tablature, hợp âm, tabs guitar, ukulele, lời bài hát: Freedom Song - Thin Lizzy - ( Freedom Song - Thin Lizzy Tabbed by:Jim Myers Email:j...)

--

-------------------------------------------------------------------------------

Freedom Song - Thin Lizzy


-------------------------------------------------------------------------------

Tabbed by:Jim Myers
Email:jemyers1975@yahoo.com

Tuning:EADGBE
Intro


e|---------------------------------------------------------------------------|
B|-2-------------------------------------------------------------------------|
G|-----4----2---2-h--4-h---2------------------------2-----1------------------|
D|-----------------------------4--2-------2--h--4---------2------------------|
A|------------------------------------5-------------------2------------------|
E|--------------------------------------------------------0------------------|

A C#M D E Verse and Chorus


e|---------4------2----------------------------------------------------------|
B|-2-------5------3------0---------------------------------------------------|
G|-2-------6------2------1---------------------------------------------------|
D|-2-------6------0------2---------------------------------------------------|
A|-0---------------------2---------------------------------------------------|
E|-----------------------0---------------------------------------------------|

Riff 1


e|------------------------------5----2---------------------------------------|
B|----2--3------------------2---------------2--3--3-P-2----------------------|
G|-2--------------------2----------------2---------------4--2--4--2----------|2X
D|-----------2-- h--4--------------------------------------------------------|
A|---------------------------------------------------------------------------|
E|---------------------------------------------------------------------------|

SOLo


e|---------------------------------------------------------------------------|
B|--7--P--5------------10--P--7-----------7--P--5-----------10--P--7---------|
G|-----------6---5X--------------9---5x------------6--5X--------------9---5x-|
D|---------------------------------------------------------------------------|
A|---------------------------------------------------------------------------|
E|---------------------------------------------------------------------------|
e|---------------------------------------------14--17--14-------14-----------|
B|-14~-17--15--14--------------------------14---------------17---------------|
G|-----------------16-14--16--14---------------------------------------------|
D|--------------------------------16--14-------------------------------------|
A|---------------------------------------------------------------------------|
E|---------------------------------------------------------------------------|
e|-----------17--p--14--------14---------------------------------------------|
B|-14--h-17--------------17-----------------14--15-------------------14------|
G|---------------------------------3x---14----------------------14-----------|
D|---------------------------------------------------14-h--16----------------|
A|---------------------------------------------------------------------------|
E|---------------------------------------------------------------------------|
e|--17---14------------------------------------------------------------------|
B|----------------14--15---15p-14--------------------------------------------|
G|------------14-------------------16--14--16--14---2x--------Intro----------|
D|---------------------------------------------------------------------------|
A|---------------------------------------------------------------------------|
E|---------------------------------------------------------------------------|


Intro
Verse 1
Chorus
Riff 1 2x
Verse 2
Chorus
Riff 1 2x
Solo
Verse 3
Chorus
Riff 1 2x
Intro 3x

L[A]et me tell you the h[C#M]ard luck story
A[D]bout a man named Ja[E]ck McDuff VERSE 1
H[A]e believed in G[C#M]od and glory
B[D]ut he just wasn[E]'t tough enough

[A]I believe in the f[C#M]reedom song
[D]Long live lib[E]erty! CHORUS
[A]I believe in the f[C#M]reedom song
[D]I'll choose my own d[E]estiny

RIFF 1 2X

[A]Well they took him and[C#M] they beat him
[D]Underneath the old han[E]ging tree
A C#M VERSE 2
Saying, "Jack, you must die"
[D]"What will your last[E] words be?"

[A]Jack, he hung his he[C#M]ad back
[D]"Long live li[E]berty!"
[A]"I believe in the fr[C#M]eedom song"
[D]"Doesn't matter what [E]you do to me"

RIFF 1 2X
SOLO

[A]With a rope around his neck [C#M]they left him hanging
[D]High on that old ha[E]nging tree
[A]D [C#M]E VERSE 3
"Lord have mercy, Lord have mercy"

[A]I believe in the f[C#M]reedom song
[D]Long live lib[E]erty!
[A]I believe in the fr[C#M]eedom song
[D]Doesn't matter what y[E]ou do to me

RIFF 1 2x
INTRO 3 X


| / slide up
| \ slide down
| h hammer-on
| p pull-off
| ~ vibrato
| + harmonic
| x Mute note

Danh sách hợp âm

Hợp âm: Freedom Song - Thin Lizzy - cảm âm, tab guitar, ukulele - lời bài hát
Có thể bạn thích