Hợp âm - tab: Fighting for Your Heart (Let It Go) - After Edmund - cảm âm - lời bài hát

Cảm âm, tablature, hợp âm, tabs guitar, ukulele, lời bài hát: Fighting for Your Heart (Let It Go) - After Edmund - ( Fighting For Your Heart (Let It Go) ~ After Edmund Intro ...)

5 months ago107 Hello (2008) After Edmund
--
Fighting For Your Heart (Let It Go) ~ After Edmund
Intro
Part 1 C#m Bm C#m D C#m D


e|------------------------------------------|
B|------------------------------------------|
G|---6-6-6-4-4-6-6-6-6-7-7-7-6-6-7-7-7------|
D|------------------------------------------|
A|---4-4-4-2-2-4-4-4-4-5-5-5-4-4-5-5-5------|
E|------------------------------------------|

Guitar 2


e|------------------------------------------|
B|-14-14-14-12-12-14-14-15-15-14-15-15------|
G|------------------------------------------|

Part 2 A F#m E


e|------------------------------------------|
B|------------------------------------------|
G|------------------------------------------|
D|---7-7-7-7-7-7-7--4-4?4-4-4-4-4?-2--------|
A|---------------------------------2--------|
E|---5-5-5-5-5-5-5--2-2-2-2-2-2-2?-0--------|

Guitar 2


e|------------------------------------------|
B|--10-10-10-10-10\19-19-19-19-19--17-------|
G|------------------------------------------| Intro Part 1, 3x Part 2, 1x


Verse
[F#m] [Em] [F#m]

e|------------------------------------------|
B|------------------------------------------|
G|---11-11-11-11-11-11-11---11--------------|
D|---11-11-11-11-11-11-11---11--------------|
A|----9--9--9--9--9--9--9\7/9---------------|
E|------------------------------------------|

[F#m]Someone tore apart [Em]you[F#m]r hear[F#m]t Someone let you d[Em]own[F#m]
[F#m]Down on the gr[Em]oun[F#m]d Som[F#m]eone ripped away [Em]you[F#m]r faith
[F#m]Someone let you bl[Em]eed[F#m] Forg[F#m]ot what you need[Em][F#m]

Pre-Chorus
[F#m]It?s not easy [B]moving [F#m]no It?s not easy [B]moving on

Chorus
[C#m] [Bm] [C#m] [D] [C#m] [D]

e|------------------------------------------|
B|------------------------------------------|
G|---6-6-6-4-4-6-6-6-6-7-7-7-6-6-7-7-7------|
D|------------------------------------------|
A|---4-4-4-2-2-4-4-4-4-5-5-5-4-4-5-5-5------|
E|------------------------------------------|

Guitar 2


e|------------------------------------------|
B|-14-14-14-12-12-14-14-15-15-14-15-15------|
G|------------------------------------------|

[A] [F#m] [E]

e|------------------------------------------------------|
B|------------------------------------------------------|
G|------------------------------------------------------|
D|---7-7-7-7-7-7-7--4-4?4-4-4-4-4?-2--2--2--2--2--2--2--|
A|---------------------------------2--2--2--2--2--2--2--|
E|---5-5-5-5-5-5-5--2-2-2-2-2-2-2?-0--0--0--0--0--0--0--|

Guitar 2


e|------------------------------------------------------|
B|---10-10-10-10-10\19-19-19-19-19-17-17-17-17-17-17-17-|
G|-------------------------------------------------------|

[C#m]Oh, L[Bm]et i[C#m]t go, Say[D] goodby[C#m]e,[D]
Cal[A]l this an emerg[F#m]ency, Love?[E]s fighting for your heart to be free,
[C#m]Don?t waste,[Bm] Ano[C#m]ther tear[D], Drown[C#m]ing h[D]ere,
In [A]yesterday?s eme[F#m]rgency, Lov[E]e?s fighting for your heart to be free

Verse
[F#m]Someone held you from [Em]you[F#m]r dream,[F#m] Someone pushed you out[Em][F#m]
[F#m]Out of the crowd[Em], S[F#m]omebo[F#m]dy stole away you[Em]r h[F#m]ope
[F#m]Someone ran off with yo[Em]ur [F#m]heart, Y[F#m]ou?re alone in the [Em]dar[F#m]k

Pre-Chorus
Chorus
Bridge
solo is this line and variants


e|------------------------------|------------------------------|
B|------------------------------|------------------------------|
G|---------------------------14-|------------------------------|
D|---16-14-16-14-14-16-14h16----|---16-14-16-14-14-16-14h16----|
A|------------------------------|---------------------------16-|
E|------------------------------|------------------------------|

This is a variation when it goes lower
[C#m] [Bm] [C#m] [D] [C#m] [D]

e|------------------------------------------|
B|------------------------------------------|
G|---6-6-6-4-4-6-6-6-6-7-7-7-6-6-7-7-7------|
D|------------------------------------------|
A|---4-4-4-2-2-4-4-4-4-5-5-5-4-4-5-5-5------|
E|------------------------------------------|

[C#m] [B] [C#m] [E] [F#m] [A] [G#m] [F#m]

e|-------------------------------------------------------|
B|-------------------------------------------------------|
G|--6-6-6-4-6-6-9-9-9-11-11-11-14-14-14-14-13-13-11-11-11|
D|-------------------------------------------------------|
A|--4-4-4-2-4-4-7-7-7-9--9--9--12-12-12-12-11-11-9--9--9-|
E|-------------------------------------------------------|


Chorus 2x

Danh sách hợp âm

Hợp âm: Fighting for Your Heart (Let It Go) - After Edmund - cảm âm, tab guitar, ukulele - lời bài hát
Có thể bạn thích