Hợp âm - tab: Fight (failed - reindex) - Natalia Barbu - cảm âm - lời bài hát

Cảm âm, tablature, hợp âm, tabs guitar, ukulele, lời bài hát: Fight (failed - reindex) - Natalia Barbu - ( +------------------------------------------------------...)

5 months ago125 Natalia Barbu
--
+--------------------------------------------------------------------------+

| This file is the author's own work and represents their interpretation |
| of the song. You may only use this file for private study, scholarship, |
| or research. |


+--------------------------------------------------------------------------+


Artist: Natalia BARBU - Fight
Album: Eurovision Song Contest 2007
Tuning: DADGBe (Drop D)
Tabbed by: Kasper K.

This is Moldova's song for the Eurovision Song Contest 2007. I think it's
actually the best song this year, so i decided to make a tab for it. ;)
Hope you like it.

Artist-info: http://en.wikipedia.org/wiki/Natalia_Barbu

Look at bottom for order to play the song, and listen to song for rhytm.

. palm mute
~ let ring

[INTRO]


e|--------------------------------|
B|--------------------------------|
G|--------------------------------|
D|-0-00-0-0-0-0-0--8-88-8-8-8-8-8-|
A|-0-00-0-0-0-0-0--8-88-8-8-8-8-8-|
D|-0-00-0-0-0-0-0--8-88-8-8-8-8-8-|

.. . . .. . .
Play this 2 times



e|------------------------------------|
B|------------------------------------|
G|------------------------------------|
D|---7-8-7---7-8-7---7-8-7---7-8-7----|
A|-5-------3-------1---------------5~-|
D|-------------------------7----------|


e|----|
B|----|
G|----|
D|-0~-|
A|-0~-|
D|-0~-|

[PRE-CHORUS]


e|-----------------------------------|
B|-----------------------------------|
G|-----------------------------------|
D|-88-8-8888-5-7777-0-00-7-0-555-3-0-|
A|-88-8-8888-5-7777-0-00-7-0-555-3-0-|
D|-88-8-8888-5-7777-0-00-7-0-555-3-0-|

.. .... .... .. .
Play this 1 time
[ Tab from: http://www.guitartabs.cc/tabs/n/natalia_barbu/fight_tab.html ]
[CHORUS]


e|----------------------------------------|
B|----------------------------------------|
G|----------------------------------------|
D|-00000000-88888888-3333-555-0000-777-7~-|
A|-00000000-88888888-3333-555-0000-777-7~-|
D|-00000000-88888888-3333-555-0000-777-7~-|

.. . . .. . . .. . .. .
Play this 2 times

[RIFF 1A]


e|----------------|
B|----------------|
G|----------------|

D|-00000-00-00000-|
A|-00000-00-00000-|
D|-00000-00-00000-|
.. . .. .....
Play this 3 times

[RIFF 1B]


e|-------------------|
B|-------------------|
G|-------------------|

D|-00-00000-00-00000-|
A|-00-00000-00-00000-|
D|-00-00000-00-00000-|
.. . .. .....
Play this 3 times

[RIFF 1C]


e|-------------------|
B|-------------------|
G|-------------------|

D|-88-88888-88-88888-|
A|-88-88888-88-88888-|
D|-88-88888-88-88888-|
.. . .. .....
Play this 1 time

[RIFF 2]


e|---------------------------------------------|
B|---------------------------------------------|
G|---------------------------------------------|
D|-88888-88888--55555-55555-000-7-00-5-3-000-7-|
A|-88888-88888--55555-55555-000-7-00-5-3-000-7-|
D|-88888-88888--55555-55555-000-7-00-5-3-000-7-|

. . ..... . . ..... .. .. .
Play this 1 time

[RIFF 3]


e|---------------------|
B|---------------------|
G|---------------------|
D|-000-000-888-5555-77-|
A|-000-000-888-5555-77-|
D|-000-000-888-5555-77-|

. . . ....
Play this 2 times



+----------------------+

Order to play the song:

1: Intro
2: Pre-chorus
3: Chorus
4: Riff 1a
5: Riff 1b
6: Riff 1c
7: Riff 2
8: Chorus
9: Riff 3
10: Chorus (Only half at end)


+----------------------+

Danh sách hợp âm

Hợp âm: Fight (failed - reindex) - Natalia Barbu - cảm âm, tab guitar, ukulele - lời bài hát
Có thể bạn thích