Hợp âm - tab: Candles - Brad - cảm âm - lời bài hát

Cảm âm, tablature, hợp âm, tabs guitar, ukulele, lời bài hát: Candles - Brad - ( ...CANDLES... by Brad from 'Interiors' (1993) Intro: ...)

5 months ago130 Interiors (1997) Brad
--
...CANDLES... by Brad


-------------........


from 'Interiors' (1993)

Intro:

[A7] [Bb7] [B7] [C7] [B7] [Bb7] [A7]

e|----------------------------------|
B|--2--3---4--5--5---4--4--3--3--2--|
G|--0--0---0--0--0---0--0--0--0--0--|
D|--2--3---4--5--5---4--4--3--3--2--|
A|--0--0---0--0--0---0--0--0--0--0--|
E|----------------------------------| (x4)


Verse 1:

[C7] [B7] [A7] [C7] [B7] [A7] [B7] [C7] [B7] [Bb7] [A7]

e|------------------|----------------------------|
B|--5--4--2------2--|--5--4--2---4--5--4--3---2--|
G|--0--0--0------0--|--0--0--0---0--0--0--0---0--|
D|--5--4--2------2--|--5--4--2---4--5--4--3---2--|
A|--0--0--0---0-----|--0--0--0---0--0--0--0---0--|
E|------------------|----------------------------| (x2)


(with Verse Riff):

[C7] [B7] [A7] Breathe a little bit,[C7][B7][A7]
[C7] [B7] [A7] Breathe a little bit for me now.[B7][C7][B7][Bb7][A7]
[C7] [B7] [A7] Dance a little bit[C7],[B7][A7]
[C7] [B7] [A7] Dance a little bit for me now.[B7][C7][B7][Bb7][A7]

Chorus 1:

[A7] [Bb7] [B7] [C7] [B7] [Bb7] [A7]

e|----------------------------------|
B|--2--3---4--5--5---4--4--3--3--2--|
G|--0--0---0--0--0---0--0--0--0--0--|
D|--2--3---4--5--5---4--4--3--3--2--|
A|--0--0---0--0--0---0--0--0--0--0--|
E|----------------------------------|


(with Chorus Riff):

[A7] And [Bb7]when [B7]the [C7]storm come's [B7]late and [Bb7]turns out the [A7]lights,
[A7] There [Bb7]is [B7]no [C7]need to [B7]worry, every-[Bb7]thing is al-[A7]right.

[A7] You've [Bb7]got [B7]your [C7]dog and your [B7]blanket and your [Bb7]candles for [A7]light.
[A7] Yeah, [Bb7]yeah, [B7]yeah, [C7]every-[B7]things, gonna [Bb7]be al-[A7]right.

Interlude:

[C7] [B7] [A7]
Verse 2:

(with Verse Riff)

[C7] [B7] [A7] Give a little bit[C7],[B7][A7]
[C7] [B7] [A7] Give a little piece of your heart.[B7][C7][B7][Bb7][A7]
[C7] [B7] [A7] Dance around now baby,[C7][B7][A7]
[C7] [B7] [A7] Dance around and play the part.[B7][C7][B7][Bb7][A7]
[C7] [B7] [A7] Make your grandma happy[C7],[B7][A7]
[C7] [B7] [A7] Roll it around..[B7].[C7][B7][Bb7][A7]

Chorus 2:

(with Chorus Riff)

[A7] And [Bb7]when [B7]the [C7]storm come's [B7]late and [Bb7]turns out the [A7]lights,
[A7] There [Bb7]is [B7]no [C7]need to [B7]worry, every-[Bb7]thing is al-[A7]right.

[A7] You've [Bb7]got [B7]your [C7]dog and your [B7]blanket and your [Bb7]candles for [A7]light.
[A7] Yeah, [Bb7]yeah, [B7]yeah, [C7]every-[B7]things, gonna [Bb7]be al-[A7]right.

CHORD DIAGRAMS:


---------------


[A7] [Bb7] [B7] [C7]
[EADGBE]x02020 [EADGBE]x0303x [EADGBE]x0404x [EADGBE]x0505x

Tabbed by Joel from cLuMsY, Bristol, England, 2006
(clumsyband@hotmail.com)

Danh sách hợp âm

Hợp âm: Candles - Brad - cảm âm, tab guitar, ukulele - lời bài hát
Có thể bạn thích