Hợp âm - tab: Blowin’ in the Wind - Bob Dylan - cảm âm - lời bài hát

Cảm âm, tablature, hợp âm, tabs guitar, ukulele, lời bài hát: Blowin’ in the Wind - Bob Dylan - ( -------------------------------------------------------...)

5 months ago176 Other Songs Bob Dylan
--
-------------------------------------------------------------------------------

Blowin' In The Wind - Bob Dylan


-------------------------------------------------------------------------------

Tabbed by: Jonas

Capo 7th



-------------------------------------------------------------------------------

I was amazed I did not find a version of this classic that is EXACTLY like
Dylan's (including his neat little walks) so I tried one myself. It should
be very accurat. As usual, play, comment and rate.

(Slash-)Chords are posted up here. You will find explanatory tabs of them
further down.



-------------------------------------------------------------------------------

[G] [G]How many [C/E]roads [C/D]must a [D/A]man walk [G]down,
G C/E C/D (A)->G->(E)->G
before you call him a man?
[G]How many [C/E]seas [C/D]must a [D/A]white dove [G]sail,
be[G]fore she [C]sleeps [C/B]in the [D/A]sand?
Yes 'n [G]how many [C/E]times [C/D]must a [D/A]cannon [E-F#-G]ball fly,
be[G]fore they're [C/E]for-[C/D]ever [G]banned?

The [C]an[C/B]swer my [D/A]friend is [G]blowing in the [C]wind[C/G],
the [C]an[C/B]swer is [D/A]blowing in[E-F#-G] the wind.


Harmonica: same chords like chorus


[G]How many [C/E]years [C/D]can a [D/A]moun[E-F#-G]tain exist,
be[G]fore it is [C/E]washed [C/D]to the [G]sea?
[G]How many [C/E]years [C/D]can some [D/A]peop[E-F#-G]le exist,
be[G]fore they're [C]allowed [C/B]to be [D/A]free?
Yes 'n [G]How many [C/E]times [C/D]can a [D/A]man [E]tu[-]rn[F#] hi[-]s [G]head,
and pre[G]tend that he [C/E]just [C/D]doesn't [G]see?


The [C]an[C/B]swer my [D/A]friend is [G]blowing in the [C]wind[C/G],
the [C]an[C/B]swer is [D/A]blowing in[E-F#-G] the wind.


Harmonica: same chords like chorus


[G]How many [C/E]times [C/D]must a [D/A]man [E-F#-G]look up,
be[G]fore he can [C/E]see [C/D]the [G]sky?
[G]how many [C/E]ears [C/G]must [D/A]one [E-F#-G]man have,
be[G]fore he can [C]hear [C/B]people [D/A]cry ?
[G]how many [C/E]deaths [C/D]will it [D/A]take [E]ti[-]ll[F#] he[-] [G]knows,
that [G]too many [C/E]people [C/D]have [G]died?


The [C]an[C/B]swer my [D/A]friend is [G]blowing in the [C]wind[C/G],
the [C]an[C/B]swer is [D/A]blowing in[E-F#-G] the wind.


Harmonica: same chords like chorus



-------------------------------------------------------------------------------

Please note: These tabs show only where to put the fingers, not the rhythm
and such! Listen to the song for that ;-)

G C/E C/D D/A (A)->G->(E)->G E-F#-G


e|---3-------|---0-(0)--|---0-(0)--|----2---|-----3---3-3-----3--|------3----|
B|---0-------|---1-(1)--|---1-(1)--|----3---|-----0---0-0-----0--|------0----|
G|---0-------|---0-(0)--|---0-(0)--|----2---|-----0---0-0-----0--|------0----|
D|--(0)------|--2-------|--0-------|---(0)--|--------------------|-----------|
A|--(2)------|----------|----------|--0-----|--0-----------------|-----------|
E|-3---------|----------|----------|--------|----3---------0h3---|-0-2-3-----|


[C] [C/B] [C/G]

e|---0-(0)--|---0-(0)--|----0------------------------------------------------|
B|---1-(1)--|---1-(1)--|----1------------------------------------------------|
G|---0-(0)--|---0-(0)--|----0------------------------------------------------|
D|--(2)-----|----------|---(2)-----------------------------------------------|
A|-3--------|--2-------|-----------------------------------------------------|
E|----------|----------|--3--------------------------------------------------|


Harmonica:


e|-----------|------------|-----------|--------------------------------------|
B|-1--0------|--0---------|--1--0-----|--------------------------------------|
G|-------2---|-----2--0---|--------2--|--0---2--0----------------------------|
D|-----------|------------|-----------|--------------------------------------|
A|-----------|------------|-----------|--------------------------------------|
E|-----------|------------|-----------|--------------------------------------|

Danh sách hợp âm

Hợp âm: Blowin’ in the Wind - Bob Dylan - cảm âm, tab guitar, ukulele - lời bài hát
Có thể bạn thích