Hợp âm - tab: Black Rain - Creeper - cảm âm - lời bài hát

Cảm âm, tablature, hợp âm, tabs guitar, ukulele, lời bài hát: Black Rain - Creeper - ( Intro] When guitar comes in: Guitar 1 Lead Guitar star...)

--
Intro]

When guitar comes in:

Guitar 1 Lead Guitar starts here


D#|---------------------|---------------------|------------------------|
A#|---------------------|---------------------|------------------------|
F#|---------------------|---------------------|-2---2---2------2--2--2-|
C#|-2-------------------|-2---------4---------|-2---2---2------2--2--2-|
G#|-2-------------------|-0---------2---------|-0---0---0------0--0--0-|
D#|-----------4~--------|---------------------|------------------------|
D#|------------------------|------------------------|-------------------------|
A#|------------------------|------------------------|-------------------------|
F#|-2---2---2---2---2---2--|------------------------|-0---0---0---0---0---0---|
C#|-2---2---2---2---2---2--|-2---2---2---2---2---2--|-0---0---0---0---0---0---|
G#|-0---0---0---0---0---0--|-3---3---3---3---3---3--|-2---2---2---2---2---2---|
D#|------------------------|------------------------|-3---3---3---3---3---3---|
D#|------------------------|------------------------|------------------------------|
A#|------------------------|------------------------|------------------------------|
F#|-2---2---2---2---2---2--|------------------------|------------------------------|
C#|-2---2---2---2---2---2--|-5---5---7---7---9------|-10---10---10---10---12---10--|
G#|-0---0---0---0---0---0--|-0---0---0---0---0------|-8----8----8----8----8----8---|
D#|------------------------|------------------------|------------------------------|
D#|-------------------------|---------|
A#|-------------------------|---------|
F#|-9---9---9---9---9---9---|---------|
C#|-9---9---9---9---9---9---|-7-------|
G#|-7---7---7---7---7---7---|-7-------|
D#|-------------------------|-5-------|



Lead Guitar, played with above rhythm


D#|---------|--------------------------|-------------------------|--------------------------|
A#|---------|--------------------------|-------------3-----------|--------------------------|
F#|---------|-4---5---5---4------------|-4---5---5---5---5---5---|-7---9---9---9------------|
C#|-x-x-x-x-|-7---7---7---7---x-x-x-x--|-5---5---3---3---3---3---|--------------------------|
G#|-x-x-x-x-|-0---0---0---0---x-x-x-x--|-------------------------|-5---7---7---7---x-x-x-x--|
D#|---------|--------------------------|-------------------------|-----------------x-x-x-x--|
D#|------------------------------|-------------------------|-/19------19------19------|
A#|-10---9---10--/12---10---10---|-------------------------|------17------17------17--|
F#|-0----0---0----0----0----0----|-12---14---14~-----------|--------------------------|
C#|------------------------------|-------------------------|--------------------------|
G#|------------------------------|-------------------------|--------------------------|
D#|------------------------------|-------------------------|--------------------------|
D#|------------------------|-------------------------|
A#|-15~-------15b17r-------|-------------------------|
F#|------------------------|-17--------16h17p16p14---|
C#|------------------------|-------------------------|
G#|------------------------|-------------------------|
D#|------------------------|-------------------------|



[Verse]
During verses, a overdub guitar strums rhythm chords shown above this part

[G#m] [E5]

D#|------------------------|------------------------|------------------------|
A#|------------------------|------------------------|------------------------|
F#|-5---5---5-----5--5--5--|-4---4---2-----2--2--2--|------------------------|
C#|-7---7---7-----7--7--7--|-5---5---3-----3--3--3--|-2---2---2-----2--2--2--|
G#|-0---0---0-----0--0--0--|------------------------|-3---3---3-----3--3--3--|
D#|------------------------|------------------------|------------------------|


[F#5] [G#m]

D#|------------------------|------------------------|--------------------------|
A#|------------------------|------------------------|--------------------------|
F#|-0---0---0---0---0---0--|-5---5---5-----5--5--5--|-4---4---5-----5---7------|
C#|-0---0---0---0---0---0--|-7---7---7-----7--7--7--|-5---5---7-----7---9------|
G#|-2---2---2---2---2---2--|-0---0---0-----0--0--0--|--------------------------|
D#|-3---3---3---3---3---3--|------------------------|--------------------------|


[E5] [D#5]

D#|-------------------------|-------------------------|
A#|-10---10---10---10-12-10-|-9---9---9-----9---9-----|
F#|-------------------------|-------------------------|
C#|-------------------------|-------------------------|
G#|-------------------------|-------------------------|
D#|-------------------------|-------------------------|



[Prechorus]


D#|-----------------------------|--------------------------------|----------------------|
A#|-----------------------------|--------------------------------|----------------------|
F#|-----------------------------|--------------------------------|-2~-------------------|
C#|-3---3---------3---3---------|-3---3----------3-------5-------|-2~-------------------|
G#|-3---3---------3---3---------|-3---3----------3-------5-------|-0~-------------------|
D#|-1---1---------1---1---------|-1---1----------1-------3-------|----------------------|
D#|-----------------------------|--------------------------------|-----------------|-----------------|
A#|-----------------------------|--------------------------------|-----------------|-----------------|
F#|-----------------------------|--------------------------------|---------5-5-5-5-|-4-4-4-4-5-5-5-5-|
C#|-3---3---------3---3---------|-3---3----------3-------5-------|-7-7-7-7-7-7-7-7-|-7-7-7-7-7-7-7-7-|
G#|-3---3---------3---3---------|-3---3----------3-------5-------|-0-0-0-0-0-0-0-0-|-0-0-0-0-0-0-0-0-|
D#|-1---1---------1---1---------|-1---1----------1-------3-------|-----------------|-----------------|



[Chorus]

[B5] [D#5]

D#|-------------------------|-------------------------|-------------------------|
A#|-------------------------|-------------------------|-------------------------|
F#|-5--5--5--5--5--5--5--5--|-5--5--5--5--5--5--5--5--|-9--9--9--9--9--9--9--9--|
C#|-5--5--5--5--5--5--5--5--|-5--5--5--5--5--5--5--5--|-9--9--9--9--9--9--9--9--|
G#|-3--3--3--3--3--3--3--3--|-3--3--3--3--3--3--3--3--|-7--7--7--7--7--7--7--7--|
D#|-------------------------|-------------------------|-------------------------|


[G#5] [F#5]

D#|-------------------------|-------------------------|------------------------|
A#|-------------------------|-------------------------|------------------------|
F#|-9--9--9--9--9--9--9--9--|-------------------------|------------------------|
C#|-9--9--9--9--9--9--9--9--|-7--7--7--7--7--7--7--7--|----5--5--------5--5----|
G#|-7--7--7--7--7--7--7--7--|-7--7--7--7--7--7--7--7--|----5--5--------5--5----|
D#|-------------------------|-5--5--5--5--5--5--5--5--|----3--3--------3--3----|


E5 D#5 C#5 PM single notes below


D#|-------------------------|-------------------------|---------------------------------|
A#|-------------------------|-------------------------|---------------------------------|
F#|-------------------------|----------------7--7-----|---------------------------------|
C#|-3--3--3--3--3--3--3--3--|----2--2--------7--7-----|---------------------------------|
G#|-3--3--3--3--3--3--3--3--|----2--2--------5--5-----|-0-0-0-0-0-0-0-0-0-0-0-0-0-0-0-0-|
D#|-1--1--1--1--1--1--1--1--|----0--0-----------------|---------------------------------|



[Verse 2]

[G#m] [E5]

D#|------------------------|------------------------|------------------------|
A#|------------------------|------------------------|------------------------|
F#|-5---5---5-----5--5--5--|-4---4---2-----2--2--2--|------------------------|
C#|-7---7---7-----7--7--7--|-5---5---3-----3--3--3--|-2---2---2-----2--2--2--|
G#|-0---0---0-----0--0--0--|------------------------|-3---3---3-----3--3--3--|
D#|------------------------|------------------------|------------------------|


[F#5] [G#m]

D#|------------------------|------------------------|--------------------------|
A#|------------------------|------------------------|--------------------------|
F#|-0---0---0---0---0---0--|-5---5---5-----5--5--5--|-4---4---5-----5---7------|
C#|-0---0---0---0---0---0--|-7---7---7-----7--7--7--|-5---5---7-----7---9------|
G#|-2---2---2---2---2---2--|-0---0---0-----0--0--0--|--------------------------|
D#|-3---3---3---3---3---3--|------------------------|--------------------------|


[E5] [D#5]

D#|--------------------------------|--------------------------------|
A#|-13--13-13--13-13--13-13--15-13-|-12--12-12--12-12--12-12--12----|
F#|--------------------------------|--------------------------------|
C#|-10--10-10--10-10--10-10--12-10-|--9---9--9---9--9---9--9---9----|
G#|--------------------------------|--------------------------------|
D#|--------------------------------|--------------------------------|



[Prechorus 2]


D#|-----------------------------|--------------------------------|----------------------|
A#|-----------------------------|--------------------------------|----------------------|
F#|-----------------------------|--------------------------------|-2~-------------------|
C#|-3---3---------3---3---------|-3---3----------3-------5-------|-2~-------------------|
G#|-3---3---------3---3---------|-3---3----------3-------5-------|-0~-------------------|
D#|-1---1---------1---1---------|-1---1----------1-------3-------|----------------------|
D#|-----------------------------|--------------------------------|-----------------|-----------------|
A#|-----------------------------|--------------------------------|-----------------|-----------------|
F#|-----------------------------|--------------------------------|---------5-5-5-5-|-4-4-4-4-5-5-5-5-|
C#|-3---3---------3---3---------|-3---3----------3-------5-------|-7-7-7-7-7-7-7-7-|-7-7-7-7-7-7-7-7-|
G#|-3---3---------3---3---------|-3---3----------3-------5-------|-0-0-0-0-0-0-0-0-|-0-0-0-0-0-0-0-0-|
D#|-1---1---------1---1---------|-1---1----------1-------3-------|-----------------|-----------------|



[Chorus 2]

[B5] [D#5]

D#|-------------------------|-------------------------|-------------------------|
A#|-------------------------|-------------------------|-------------------------|
F#|-5--5--5--5--5--5--5--5--|-5--5--5--5--5--5--5--5--|-9--9--9--9--9--9--9--9--|
C#|-5--5--5--5--5--5--5--5--|-5--5--5--5--5--5--5--5--|-9--9--9--9--9--9--9--9--|
G#|-3--3--3--3--3--3--3--3--|-3--3--3--3--3--3--3--3--|-7--7--7--7--7--7--7--7--|
D#|-------------------------|-------------------------|-------------------------|


[G#5] [F#5]

D#|-------------------------|-------------------------|-------------------------|
A#|-------------------------|-------------------------|-------------------------|
F#|-9--9--9--9--9--9--9--9--|-------------------------|-------------------------|
C#|-9--9--9--9--9--9--9--9--|-7--7--7--7--7--7--7--7--|----5--5-----5--5--5--5--|
G#|-7--7--7--7--7--7--7--7--|-7--7--7--7--7--7--7--7--|----5--5-----5--5--5--5--|
D#|-------------------------|-5--5--5--5--5--5--5--5--|----3--3-----3--3--3--3--|


[E5] [D#5] [C#5]

D#|-------------------------|------------------------|
A#|-------------------------|------------------------|
F#|-------------------------|----------------7--7----|
C#|-3--3--3--3--3--3--3--3--|----2--2--------7--7----|
G#|-3--3--3--3--3--3--3--3--|----2--2--------5--5----|
D#|-1--1--1--1--1--1--1--1--|----0--0----------------|


repeat chorus


[Bridge]

play 2x


D#|----------------------|-------------------------|---------------------|---------------------|
A#|----------------------|-------------------------|---------------------|---------------------|
F#|-2----2---------------|-------------------------|---------------------|---------------------|
C#|-2----2----2----3-----|----3--3--3--3--3--3--3--|-2----2----2----2----|-5----5----5----5----|
G#|-0----0----2----3-----|----3--3--3--3--3--3--3--|-2----2----2----2----|-5----5----5----5----|
D#|-----------0----1-----|----1--1--1--1--1--1--1--|-0----0----0----0----|-3----3----3----3----|

PM PM PM



D#|----------------------|-------------------------|---------------------|---------------------|
A#|----------------------|-------------------------|---------------------|---------------------|
F#|----------------------|-------------------------|---------------------|---------------------|
C#|-----------2----3-----|----3--3--3--3--3--3--3--|-2----2----2----2----|-5----5----5----5----|
G#|-----------2----3-----|----3--3--3--3--3--3--3--|-2----2----2----2----|-5----5----5----5----|
D#|-----------0----1-----|----1--1--1--1--1--1--1--|-0----0----0----0----|-3----3----3----3----|

PM PM PM



D#|----------------------|-------------------------|---------------------|---------------------|
A#|----------------------|-------------------------|---------------------|---------------------|
F#|-2----2---------------|-------------------------|---------------------|---------------------|
C#|-2----2----2----3-----|----3--3--3--3--3--3--3--|-2----2----2----2----|-5----5----5----5----|
G#|-0----0----2----3-----|----3--3--3--3--3--3--3--|-2----2----2----2----|-5----5----5----5----|
D#|-----------0----1-----|----1--1--1--1--1--1--1--|-0----0----0----0----|-3----3----3----3----|

PM PM PM



D#|-------------------------|-------------------------|
A#|-------------------------|-------------------------|
F#|-2-----------4-----------|-5-----------7-----------|
C#|-2-----------4-----------|-5-----------7-----------|
G#|-0-----------2-----------|-3-----------5-----------|
D#|-------------------------|-------------------------|



[Final Chorus]

[B5] [D#5]

D#|-------------------------|-------------------------|-------------------------|
A#|-------------------------|-------------------------|-------------------------|
F#|-5--5--5--5--5--5--5--5--|-5--5--5--5--5--5--5--5--|-9--9--9--9--9--9--9--9--|
C#|-5--5--5--5--5--5--5--5--|-5--5--5--5--5--5--5--5--|-9--9--9--9--9--9--9--9--|
G#|-3--3--3--3--3--3--3--3--|-3--3--3--3--3--3--3--3--|-7--7--7--7--7--7--7--7--|
D#|-------------------------|-------------------------|-------------------------|


[G#5] [F#5]

D#|-------------------------|-------------------------|-------------------------|
A#|-------------------------|-------------------------|-------------------------|
F#|-9--9--9--9--9--9--9--9--|-------------------------|-------------------------|
C#|-9--9--9--9--9--9--9--9--|-7--7--7--7--7--7--7--7--|----5--5--------5--5-----|
G#|-7--7--7--7--7--7--7--7--|-7--7--7--7--7--7--7--7--|----5--5--------5--5-----|
D#|-------------------------|-5--5--5--5--5--5--5--5--|----3--3--------3--3-----|


[E5] [D#5] [C#5]

D#|-------------------------|-------------------------|
A#|-------------------------|-------------------------|
F#|-------------------------|----------------7--7-----|
C#|-3--3--3--3--3--3--3--3--|----2--2--------7--7-----|
G#|-3--3--3--3--3--3--3--3--|----2--2--------5--5-----|
D#|-1--1--1--1--1--1--1--1--|----0--0-----------------|


repeat chorus to end

Danh sách hợp âm

Hợp âm: Black Rain - Creeper - cảm âm, tab guitar, ukulele - lời bài hát
Có thể bạn thích