Hợp âm - tab: ? bån og veslegut - Odd Nordstoga - cảm âm - lời bài hát

Cảm âm, tablature, hợp âm, tabs guitar, ukulele, lời bài hát: ? bån og veslegut - Odd Nordstoga - ( Min første tab, som i tillegg er fritolka på husk og syns...)

--
Min første tab, som i tillegg er fritolka på husk og synsing.
Konstruktiv kritikk mottas med takk.

Intro
[Em] [Em] [C] [C]

e|-----------0---|---------------|---------------|---------------|
B|---------------|--0------------|---------1-----|---------------|
G|---------------|------0--------|---------0-----|---------------|
D|------2--------|----------2----|-----2---------|---------------|
A|---------------|---------------|-3-------------|---------------|
E|-0-------------|---------------|---------------|---------------|


[Em] [Em] [C] [C]

e|---------------|-----------0---|---------------|---------------|
B|-----------0---|---------------|---------1-----|---------------|
G|---------------|--0------------|---------0-----|---------------|
D|------2--------|------2--------|-----2---------|---------------|
A|---------------|---------------|-3-------------|---------------|
E|-0-------------|---------------|---------------|---------------|


Vers
[Em] [Em] [C] [C]

e|-----------0---|---------------|---------------|----------1----|
B|---------------|-0-------------|----------1----|---------------|
G|---------------|-----0---------|---------------|--0------------|
D|------2--------|----------2----|-----2---------|------2--------|
A|---------------|---------------|-3-------------|---------------|
E|-0-------------|---------------|---------------|---------------|

? bån og veslegut heitar eg, og

[C] [D] [G] [G(B7)]

e|---------------|---------2-----|---------------|-----------3---|
B|---------1-----|---------3-----|---------3-----|---------------|
G|---------0-----|-----2---------|---------------|-0-------------|
D|-----2---------|-0-------------|---------------|-----0---------|
A|-3-------------|---------------|-----2---------|---------------|
E|---------------|---------------|-3-------------|---------------|

pil og boge hev eg med meg. Kom

[Em] [Em] [Am(C)] [Am(C)]

e|---------------|----------0----|---------------|-----------0---|
B|----------0----|---------------|---------1-----|---------------|
G|---------------|--0------------|---------------|--2------------|
D|------2--------|------2--------|-----2---------|------2--------|
A|---------------|---------------|-0-------------|---------------|
E|-0-------------|---------------|---------------|---------------|

reven raude, no skó du daue, no

[Am] [B7]

e|---------------|---------------|
B|----------1----|-----------0---|
G|----------2----|-----------2---| Tilbake
D|-----2---------|------1--------| til
A|-0-------------|-2-------------| intro
E|---------------|---------------|

skyt eg deg


? rev du slett alli tenkje må
at du meg lombi skò stela frå
Kjem du i skogen,
eg skyt med bogen, skò du få sjå

Burtafor stoga ein bekk der renn
Der set eg upp både sag og kvenn,
og bygger båtar,
båd' skip og flåtar
på sjøen fin

Te mast eg set upp ei hanafjør
og så te Gull-landet då det ber
Sjå skipet reilar
Ja, sjå det seilar. Snart er me der

Så kjem eg att med ei tunne gull,
med lomb og sauir og silkeull,
og fuglar kjøne
båd' blå og grøne, som syng i krull

Ingebjørg Bratland / Odd Nordstoga / Jørun Telnes
Tekst er hentet fra www.testarena.no

Danh sách hợp âm

Hợp âm: ? bån og veslegut - Odd Nordstoga - cảm âm, tab guitar, ukulele - lời bài hát
Có thể bạn thích