Chord/Tab song: You Someone - Somewhere - Terry Hoax

Chord,Tablature, lyric, sheet, guitar, ukulele song: You Someone - Somewhere - Terry Hoax - ( Date: Mon, 26 Jan 1998 09:08:25 -0500 From: Andre Bertran...)

--
Date: Mon, 26 Jan 1998 09:08:25 -0500
From: Andre Bertrand
To: guitar@olga.net
Subject: TAB: You Someone Somewhere by Terry Hoax

YOU, SOMEONE SOMEWHERE - TERRY HOAX

(from Andre Bertrand e-mail: andreberpty.com)

Em : 022000
Am : x02210
C : 332010
D : xx0232
G : 320003
C7 : x32000

I play the C chord with both C and G at the base, I think it sounds
nicer for this song.

For the parts of the song with picking, "00" means the note lasts
for twice the time as the others.

Intro:
[G] [G] [G] [G]

E-|-------------------------------------------------------------------------|
B-|--------0---11-0----------|-^-------0-----0-11-0----------|-^------------|
G-|------0---0------0-2-00---|-|-----0---0-2--------0-2-00---|-|------------|
D-|--------------------------V-|-----------------------------V-|------------|
A-|-------------------------------------------------------------------------|
E-|-------------------------------------------------------------------------|


[Em] I wanna [Am]be alone in [C]peacefullness,

[Em] Dressed in [Am]music warm and [D]close,

[Em] Forget the [Am]people and that [C]what they say,

[Em] I harvest [Am]the thorns from the [D]rose,

[G]I just [D]wanna lo[C]ve you,

[G]You some[D]one some[C]where,

[G]Falling [D]down and [C]loving you,

[G]Falling [D]without [C]care,

[Em] I wanna [Am]be alone in [C]peacefullness,

[Em] And turn a[Am]way from all this [D]fuss,

[Em] From all in[Am]difference and [C]drunkeness,

[Em] I'd lost my [Am]self-esteem at [D]dusk,

[G]I just [D]wanna lo[C]ve you,

[G]You some[D]one some[C]where,

[G]Falling [D]down and [C]loving you,

[G]Falling [D]without [C]care,

(The singing starts where I've indicated, but the rest of the words are not
in line with the notes.)

And it's hard to avow oneself,


E-|-------0----0-------------------------------------------------------------|
B-|---------00---1----------00-----------------------------------------------|
G-|-----2----------4------0----0---------0-00-0----------0--------0----------|
D-|---------------------0--------0-----0--------0----------0-----------------|
A-|---0---------------2------------2-3------------3-3__4-----4__3------------|
E-|--------------------------------------------------------------------------|


Yes it's hard to say that's true,


E-|-------0----0-------------------------------------------------------------|
B-|---------00---1----------00-----------------------------------------------|
G-|-----2----------4------0----0---------0-00-0----------0--------0----------|
D-|---------------------0--------0-----0--------0----------0-----------------|
A-|---0---------------2------------2-3------------3-3__4-----4__3------------|
E-|--------------------------------------------------------------------------|


And it's hard to avow oneself,


E-|-------0----0-------------------------------------------------------------|
B-|---------00---1----------00-----------------------------------------------|
G-|-----2----------4------0----0---------0-00-0----------0--------0----------|
D-|---------------------0--------0-----0--------0----------0-----------------|
A-|---0---------------2------------2-3------------3-3__4-----4__3------------|
E-|--------------------------------------------------------------------------|


That it's hard to be without you,


E-|-------0----0-----------------------0-------------------------------------|
B-|---------00---1----------00---------0-------------------------------------|
G-|-----2----------4------0----0-------0-------------------------------------|
D-|---------------------0--------0-----2-------------------------------------|
A-|---0---------------2------------2---3-------------------------------------|
E-|------------------------------------x-------------------------------------|

[C7]
[C7]Without you,

[G]I just [D]wanna lo[C]ve you,

[G]Not some[D]one some[C]where,

[G]Falling [D]down and [C]loving you,

[G]Falling [D]without [C]care,

[G]I just [D]wanna lo[C]ve you,

[G]You some[D]one some[C]where,

[G]Falling [D]down and [C]loving you,

[G]Falling [D]without [C7]care,

Note that the very last chord actually played is C7 (x32000)
instead of C to end the song.

Chords List

Chord: You Someone - Somewhere - Terry Hoax - tab, song lyric, sheet, guitar, ukulele
Maybe you like