Chord/Tab song: Wanderlust - Nightwish

Chord,Tablature, lyric, sheet, guitar, ukulele song: Wanderlust - Nightwish - ( Hope you like it enjoy !! [D] [F] [G] [G] [A] [...)

--
Hope you like it enjoy !!

[D]

e:-------------------------------------17----------------|
B:-------------------------13-15-17-18----18-17-15-------|
G:-14----------------12-14-------------------------------|
D:----15-14-12-14-15-------------------------------------|
A:-------------------------------------------------------|
E:-------------------------------------------------------|


[F]

e:-20-18-20-17-20----20----20-18-20-17-20----20----------|
B:----------------20----18----------------20-------------|
G:-------------------------------------------------------|
D:-------------------------------------------------------|
A:-------------------------------------------------------|
E:-------------------------------------------------------|


[G]

e:-18-17-15----------------------------------------------|
B:----------15-------------------------------------------|
G:-------------15-14-12----------------------------------|
D:----------------------12-----------------5-7-8---------|
A:-------------------------13-12-10------5---------------|
E:----------------------------------10-6-----------------|


[G] [A] [(] [A#] [A] [)]

e:-------------------------------------------------------|
B:-----------------5/10-8--------------------------------|
G:-----7-9-------6--------10-9---------------------------|
D:---8---------7-----------------------------------------|
A:-5-----------------------------------------------------|
E:-------------------------------------------------------|


Repeat from the begining then play this

[A#] [G] [F] [C] [C#] [D]

e:-------------------------------------------------------|
B:-----/15~--15-13--11-10-8~----8-10---------------------|
G:---------------------------10-------10-9-7~------------|
D:-12----------------------------------------------------|
A:-------------------------------------------------------|
E:-------------------------------------------------------|


Intro (rhythm guitar)


e:-----------------------------------------------------------------------------|
B:-----------------------------------------------------------------------------|
G:-----------------------------------------------------------------------------|
D:-------------------------------5--7--------------------------------5---3-2---|
A:-5-5-5-5-5---------------------5--7--5-5-5-5-5---------------------5---1-0---|
E:-----------1-1-1-1-1-3-3-3-3-3-3--5------------1-1-1-1-1-3-3-3-3-3-3---------|

p.m. . . . . . . . . . . . . . . . . . . . . . . . . . . . .



e:---------------------|
B:---------------------|
G:-3-----------5---(7)-|
D:-3---5---3---5-7-(7)-|
A:-1---5---3---3-4-(5)-|
E:-----3---1-----------|


Verse


e:-----------------------------------------------|
B:-----------------------------------------------|
G:-7---------------------7-----------------------|
D:-7---3---5---------7---7---3---5---------8-7---|
A:-5---3---5---------7---5---3---5---------8-7---|
E:-----1---3---3-3-3-5-------1---3---3-3-3-6-5---|

. . . . . .



e:-----------------------------------------------------------------|
B:-----------------------------------------------------------------|
G:-----8---------------------------------------------------8-------|
D:-8---8-----------------------------------------------8---8---3---|
A:-8---6---5-5-5-5-5--5-5--5-5--5--5--5-5-5-5-5--5-5---8---6---3---|
E:-6---------------------------------------------------6-------1---|

p.m. . . . . . . . . . . . . . . . . . .

Chorus
Here is my problem because of the D#. I think that it was played one octave lower
but it's maybe the keyboard which gave me this impression...


e:-----------------------------------------------------------------------------|
B:-----------------------------------------------------------------------------|
G:-----5---8-------3-----------8-----------------------------3-----------------|
D:-5---5---8---3---3---3---5---8-------------------------5---3---3-------------|
A:-5---3---6---3---1---3---5---6-------5-----7-----8-3-3-3---1---3-------------|
E:-3-----------1-------1---3-------3-3-3-5-5-5-6-6-6-------------1-------------|

p.m. . . . . . . . . .

oh oh oh oh....Wanderlust ;)


e:--------------------------------------------|
B:--------------------------------------------|
G:---------------------5---3------------------|
D:-5---3---1---0---5---5---3---3--------------|
A:-5---3---1---0---5---3---1---3--------------|
E:-3---1-----------3-----------1--------------|


Break


e:-----------------------------------------------------------------------|
B:-----------------------------------------------------------------------|
G:-----------------------------------------------------------------------|
D:-----------------------------------------------------------------------|
A:-5--6-5--6-3-5--6-5--6-3-5-------6-5-------6-3-5-------6-5-------6-3---|
E:-3--4-3--4-1-3--4-3--4-1-3-3-3-3-4-3-3-3-3-4-1-3-3-3-3-4-3-3-3-3-4-1---|

p.m. . . . . . . . . . . . . . . . . . . . .



e:----------------------------------------------------|
B:----------------------------------------------------|
G:----------------------------------------------------|
D:---------------------0---------------------0--------|
A:-2-------3-2-------3-0-2-------3-2-------3-0-2-2-2--|
E:-0-0-0-0-1-0-0-0-0-1---0-0-0-0-1-0-0-0-0-1---0-0-0--|

p.m. . . . . . . . . . . . . . . . . . . . . . .



e:-----------------------------------------------------------------------------|
B:-----------------------------------------------------------------------------|
G:-----------------------------------------------------------------------------|
D:-----------------------------------------------------------------------------|
A:-------------2-2-----------------2-2-------------2-2---7-7-7-7-7-5-4---------|
E:-0-0-0-1-0-1-0-0---0-0-0-1-0-1/2-0-0---0-0-0-1-0-0-0-------------------------|

p.m. . . . . . . . . . . . . . . . . . . . . . . . . . . . . . . . .

I'm not really sure about this... But it may gives you an idea.
T right hand tapping, P pull off, H hammer on

[C#] [E]

e:-------T---P-H-T---P-H-T---P-H-T--T---P-H-T---P---T---P-H-T------------------|
B:-------9-7-5-7-9-7-5-7-9-7-5-7-10-9-7-5-7-9-7-5\\4-7-5-4-5-7------------------|
G:-6---------------------------------------------------------------------------|
D:-6---------------------------------------------------------------------------|
A:-4------------------------------------------------------------2 TIMES--------|
E:-----------------------------------------------------------------------------|
e:-----------------------------------------------------------------------------|
B:-----------------------------------------------------------------------------|
G:---------6---------------6-------------6-------------------------------------|
D:-7---4---6-----2---4-----6-----7---4---6-----7---4---2-----------------------|
A:-7---4---4-----2---4-2/3/4-----7---4---4-----7---4---2-----------------------|
E:-5---2---------0---2-----------5---2---------5---2---0-----------------------|

FreakMen

Chords List

Chord: Wanderlust - Nightwish - tab, song lyric, sheet, guitar, ukulele
Maybe you like