Chord/Tab song: Up Periscope - Drake Bell

Chord,Tablature, lyric, sheet, guitar, ukulele song: Up Periscope - Drake Bell - ( Up Periscope by Drake Bell Chords by alex_72886 CHORDS ...)

--
Up Periscope by Drake Bell

Chords by alex_72886

CHORDS USED:
[C] [E7] [A] [A7] [Dm] [G/B] [Am] [Am/G] [D7] [C/E] [F]

e/---0-----0-----0-----0-----1-----3-----0-----0-----2-----0-----1-----|
B/---1-----0-----2-----2-----3-----3-----1-----1-----1-----1-----1-----|
G/---0-----1-----2-----0-----2-----0-----2-----2-----2-----0-----2-----|
D/---2-----0-----2-----2-----0-----0-----2-----2-----0-----2-----3-----|
A/---3-----2-----0-----0-----x-----2-----0-----x-----x-----3-----3-----|
E/---x-----0-----x-----x-----x-----x-----x-----3-----x-----0-----1-----|


[Fm] [Fm/G#] [Csus/G] [A7/C#] [F/G] [A#] [G]

e/---1-----4-----x-----0-----X-----1-----3-----|
B/---1-----6-----6-----2-----x-----3-----3-----|
G/---1-----5-----5-----0-----2-----3-----0-----|
D/---3-----x-----5-----2-----3-----3-----0-----|
A/---3-----x-----x-----4-----3-----1-----2-----|
E/---1-----4-----3-----x-----3-----x-----3-----|


Notes: Chords Fm/G#, Csus/G, A7/C# can be played as
Fm, Csus, and A7 respectively

Verse I:

If I could [C]have a single wish
I'd only [E7]wish I never miss it
When you [A]wake up and smile[A7]

It makes me happy
When you [Dm]steal a little kiss
Before you [Fm]wake me up
To listen to the [C]news for a while

Verse II:

And when you're cr[C]eeping out of bed
I sneak a [E7]peek to see
Just what you were w[A]earing last nigh[A7]t
Or what was leftover from [Dm]ripping off your clothes
I check to [Fm]see that door was closed
As you were t[C]urning out the lights[C-G/B]


Pre-Chorus:

[Am] Whoever said[Am/G] romance was [D7]over
[C/E-F]Roll over[Fm/G#][Csus/G]
So [C]I [G/B]can sh[A7]ow you
[A7/C#]Don't you w[Dm]ant me to be
The captain [F/G]of your submarine


Chorus:

[C]
That's what [D7]I say
That's just [A#]my wa[G]y
Of [C]saying that I love you


Verse III:

My life is l[C]ike a bowl of cherries
Not so v[E7]ery ordinary
Overf[A]lowing with love[A7]

And I could never want
For [Dm]more unless our two
Became a [Fm]four or maybe three
And if we [C]practiced it enough[C-G/B].


Pre-Chorus:

[Am] Whoever said[Am/G] romance was [D7]over
[C/E-F]Roll over[Fm/G#][Csus/G]
So [C]I [G/B]can sh[A7]ow you
[A7/C#]Don't you w[Dm]ant me to be
The captain [F/G]of your submarine


Chorus:

[C]
That's what [D7]I say
That's just [A#]my wa[G]y
Of [C]saying that I love you


Verse IV:

Now I [C]know that life is hard
I know that l[E7]ove can break your heart
That's just the [A]way that it is[A7]
Well baby that's a load of s[Dm]mack
And don't you know I've got your [Fm]back
What's important is the w[C]ay that we live


Verse V:

And like the [C]way you like this song
Because it m[E7]akes you hum along
And tap your f[A]oot to the beat[A7]
Well that's the way you make me f[Dm]eel
When we're doing it for [Fm]real
I can feel it from my h[C]ead to my feet


Pre-Chorus II:

[Am] Whoever said[Am/G] romance was [D7]over
[C/E-F]Roll over[Fm/G#][Csus/G]
So [C]I [G/B]can gi[A7]ve you
[A7/C#]One more ch[Dm]ance to believe
And h[Fm/G#]opefully see
That [C]I s[G/B]till w[A7]ant you
[A7/C#]Don't you [Dm]want me to be
The captain [F/G]of your submarine


Chorus:

[C]
That's what [D7]I say
That's just [A#]my wa[G]y
Of [C]saying that I love you (I l[F/G]ove y[C]ou)

Chords List

Chord: Up Periscope - Drake Bell - tab, song lyric, sheet, guitar, ukulele
Maybe you like