Chord/Tab song: Unstookie Titled - Babyshambles

Chord,Tablature, lyric, sheet, guitar, ukulele song: Unstookie Titled - Babyshambles - ( THIS WHOLE SONG IS LIKE FUCK 4EVA SUPRIZED NO1 GOT THIS L...)

--
THIS WHOLE SONG IS LIKE FUCK 4EVA SUPRIZED NO1 GOT THIS LICK RIGHT
BUT HERE IT IS
RPT ONCE


------------------------------------I------------------------------------------|
--3---3---2h3--2---3s7---7---10--10-I-12----12---12---7--7---11--11--11--7--7--|
--------0--------------0--------0---I------------------------------------------|
----0------------------------------0I-----0--------------------0---------------|
--2---2---0h2--0---2s5---5---9---9--I-10----10---10---5--5---9---9----9--5--5--|
------------------------------------I------------------------------------------|
--3---3----2--3-2--2--------------------|
--3---3----3--3-3--3--------------------|
--0---0----2--2-2--2--------------------|
----0---0----------0--------------------|
-----------0----------------------------|
--3---3---------------------------------|


THIS RIFF PLAYS THROUGHOUT
BUT IF YOU HAVE 2 GUITARS ADD THESE CHORDS ON TOP

You smoke your [Bm]cigarettes all [A]down to the [D]bone,
You [Bm]bow to [D]vac it,
You [A]vow to [D]back it,
Oh you [G]vow to back it [A]all the way [D]home.

(REPEAT)

She [D]calls my [A]name,
[D]Calls my [A]name,
She [D]calls my [A]name,
Oh [E]yeah.

RIFF (AGAIN!....)
You smoke your [Bm]cigarettes all [A]down to the [D]bone,
You [Bm]bow to [D]vac it,
You [A]vow to [D]back it,
Oh you [G]vow to back it [A]all the way [D]home.

Sh[D]e calls m[A]y name,
[D]Calls my [A]name,
She [D]calls my [A]name,
Oh [E]yeah.
[(E)]Back when I am truly single...

then:



e|----2--2-1-0--0-9--9--9--9--9--7-|
B|----3--2-1-0--0-10-10-10-10-10-8-|
G|----4--3-2-0--0-9--9--9--9--9--7-| REPEAT X 3
D|----4--4-3-2--2-0--0--0--0--0--0-|
A|-2--2--4-3-2--2------------------|
E|----x--2-1-0--0------------------|


D C Bm SOLO LIKE FUCK 4EVA INTRO

Chords List

Chord: Unstookie Titled - Babyshambles - tab, song lyric, sheet, guitar, ukulele
Maybe you like