Chord/Tab song: Turn Me On "Mr. Deadman" - The Union Underground

Chord,Tablature, lyric, sheet, guitar, ukulele song: Turn Me On "Mr. Deadman" - The Union Underground - ( "Turn Me on Mr Dead Man" - The Union Underground Tabbed b...)

3 months ago27 The Union Underground
--
"Turn Me on Mr Dead Man" - The Union Underground
Tabbed by ChickenSoda@aol.com

As usual with me, Drop C tuning

b-Bend
PM_-Palm Mute

Intro/Verse



4 -3-3-3-3-2-2-2-2-0-0-0-0-1-1-1-
5 -3-3-3-3-2-2-2-2-0-0-0-0-1-1-1-
6 -3-3-3-3-2-2-2-2-0-0-0-0-1-1-1-

PM _ _ _ _ _ _ _ _ _ _ _ _ _ _

[---]
Verse Part 2



4 -5-5-5-5-4-4-4-4-2-2-2-2-3-3-3-
5 -5-5-5-5-4-4-4-4-2-2-2-2-3-3-3-
6 -5-5-5-5-4-4-4-4-2-2-2-2-3-3-3-

PM _ _ _ _ _ _ _ _ _ _ _ _ _ _

[---]
Chorus



3 ------------------4b(strum)-
4 -3--3-1-3--3-1-3--4b(strum)-
5 -3--3-1-3--3-1-3--2b(strum)-
6 -3--3-1-3--3-1-3------------
4 -3--3-1-3--3-1-3--0-0-6-5-
5 -3--3-1-3--3-1-3--0-0-6-5-
6 -3--3-1-3--3-1-3--0-0-6-5-


[---]
Bridge-Like Riff



4 -1-3-3-1-3-3-1-3-
5 -1-3-3-1-3-3-1-3-
6 -1-3-3-1-3-3-1-3-


[---]
Outro

[4] [-1-3-3-]
[5] [-1-3-3-]
[6] [-1-3-3-]
Play this riff until you get sick, and then the song's over.

Chords List

Chord: Turn Me On "Mr. Deadman" - The Union Underground - tab, song lyric, sheet, guitar, ukulele
Maybe you like