Chord/Tab song: Tron - Foals

Chord,Tablature, lyric, sheet, guitar, ukulele song: Tron - Foals - ( Synth 1: Fig.1A (1) <--- This is the number of bar 1...)

2 years ago315 Antidotes (2008) Foals
--

----------------------------------INTRO (3/4): (0:00 ' 0:22)--------------------------------------------------


Synth 1: Fig.1A
(1) <--- This is the number of bar


e|------------------------||------------------------||
B|------------------------||----------------------||
G|------------------------||------------------------||
D|--------------------1212||12--12--12--12------1212||
A|------------------------||----------------------||
D|------------------------||------------------------||

1 + 2 + 3 + 1 + 2 + 3 + <----This is the number of beats per bar.

The 5th time you repeat it, you add a note:
Synth 1: Fig.1B
[(5)] [(6)] [(7)]

e|----------------13------|----------------13------|----------------13------|
B|------------------------|------------------------|------------------------|
G|------------------------|------------------------|------------------------|
D|12--12--12--12------1212|12--12--12--12------1212|12--12--12--12------1212|
A|------------------------|------------------------|------------------------|
D|------------------------|------------------------|------------------------|

[1] [+] [2] [+] [3] [+] [1] [+] [2] [+][3][+][1][+][2][+][3][+]
After this three bars, Yannis gets in:
Synth 1:
(8) (9) (10)


e|----------------13------|----------------13------|----------------13------|
B|------------------------|------------------------|------------------------|
G|------------------------|------------------------|------------------------|
D|12--12--12--12------1212|12--12--12--12------1212|12--12--12--12------1212|
A|------------------------|------------------------|------------------------|
D|------------------------|------------------------|------------------------|

Ya[1]nnis[+]: Fi[2]g.1A[+] (Wi[3]th s[+]ome r[1]ever[+]b or[2] del[+]ay)[3][+][1][+][2][+][3][+]


e|------------------------|------------------------|------------------------|
B|----------------15------|----------------15------|----------------15------|
G|------------------------|------------------------|------------------------|
D|------------------------|------------------------|------------------------|
A|------------------------|------------------------|------------------------|
D|------------------------|------------------------|------------------------|

[1] [+] [2] [+] [3] [+] [1] [+] [2] [+][3][+][1][+][2][+][3][+]
Then Walter and synth 2:
Synth 1:
[(11)] [(12)] [(13)]

e|----------------13------|----------------13------|----------------13------|
B|------------------------|------------------------|------------------------|
G|------------------------|------------------------|------------------------|
D|12--12--12--12------1212|12--12--12--12------1212|12--12--12--12------1212|
A|------------------------|------------------------|------------------------|
D|------------------------|------------------------|------------------------|

Sy[1]nth [+]2: F[2]ig.1[+]A[3][+][1][+][2][+][3][+][1][+][2][+][3][+]


e|------------------------|------------------------|22----------------------|
B|------------------------|------------------------|------------------------|
G|------------------------|------------------------|------------------------|
D|------------------------|------------------------|------------------------|
A|------------------------|------------------------|------------------------|
D|------------------------|------------------------|------------------------|

Ya[1]nnis[+]:[2][+][3][+][1][+][2][+][3][+][1][+][2][+][3][+]


e|------------------------|------------------------|------------------------|
B|----------------15------|----------------15------|----------------15------|
G|------------------------|------------------------|------------------------|
D|------------------------|------------------------|------------------------|
A|------------------------|------------------------|------------------------|
D|------------------------|------------------------|------------------------|

Wa[1]lter[+]: Fi[2]g.1A[+][3][+][1][+][2][+][3][+][1][+][2][+][3][+]


G|------------------------|------------------------|------------------------|
D|--------------------12--|12------------------12--|12------------------12--|
A|------------------------|------------------------|------------------------|
E|------------------------|------------------------|------------------------|

[1] [+] [2] [+] [3] [+] [1] [+] [2] [+][3][+][1][+][2][+][3][+]
Drums come in at the 3rd beat of the 15 bar. In bar 16, synth 2 changes timing.
Synth 1:
[(14)] [(15)] [(16)]

e|----------------13------|----------------13------|----------------13------|
B|------------------------|------------------------|------------------------|
G|------------------------|------------------------|------------------------|
D|12--12--12--12------1212|12--12--12--12------1212|12--12--12--12------1212|
A|------------------------|------------------------|------------------------|
D|------------------------|------------------------|------------------------|

Sy[1]nth [+]2:Fi[2]g.1A[+] [3] [+] [1] [+] [2] [+] [3] [+] [1] Fig[+].1B[2][+][3][+]


e|22----------------------|22---------------------||--------22--------------|
B|------------------------|-----------------------||------------------------|
G|------------------------|-----------------------||------------------------|
D|------------------------|-----------------------||------------------------|
A|------------------------|-----------------------||------------------------|
D|------------------------|-----------------------||------------------------|

Ya[1]nnis[+]:[2][+][3][+][1][+][2][+][3][+][1][+][2][+][3][+]


e|------------------------|------------------------|------------------------|
B|----------------15------|----------------15------|----------------15------|
G|------------------------|------------------------|------------------------|
D|------------------------|------------------------|------------------------|
A|------------------------|------------------------|------------------------|
D|------------------------|------------------------|------------------------|

Wa[1]lter[+]:[2][+][3][+][1][+][2][+][3][+][1][+][2][+][3][+]


G|------------------------|------------------------|------------------------|
D|12------------------12--|12----------------------|------------------------|
A|------------------------|--------------------13--|13------------------13--|
E|------------------------|------------------------|------------------------|

[1] [+] [2] [+] [3] [+] [1] [+] [2] [+][3][+][1][+][2][+][3][+]
Synth 1:
(17) (18) (19)


e|----------------13------|----------------13------|----------------13------||
B|------------------------|------------------------|------------------------||
G|------------------------|------------------------|------------------------||
D|12--12--12--12------1212|12--12--12--12------1212|12--12--12--12------1212||
A|------------------------|------------------------|------------------------||
D|------------------------|------------------------|------------------------||

Sy[1]nth [+]2:[2][+][3][+][1][+][2][+][3][+][1][+][2][+][3][+]


e|--------22--------------|--------22--------------|--------22--------------||
B|------------------------|------------------------|------------------------||
G|------------------------|------------------------|------------------------||
D|------------------------|------------------------|------------------------||
A|------------------------|------------------------|------------------------||
D|------------------------|------------------------|------------------------||

Ya[1]nnis[+]:[2][+][3][+][1][+][2][+][3][+][1][+][2][+][3][+]


e|------------------------|------------------------|------------------------||
B|----------------15------|----------------15------|----------------15------||
G|------------------------|------------------------|------------------------||
D|------------------------|------------------------|------------------------||
A|------------------------|------------------------|------------------------||
D|------------------------|------------------------|------------------------||

Wa[1]lter[+]:[2][+][3][+][1][+][2][+][3][+][1][+][2][+][3][+]


G|------------------------|------------------------|------------------------||
D|------------------------|------------------------|--------------------12--||
A|13------------------15--|15------------------15--|15----------------------||
E|------------------------|------------------------|------------------------||

[1] [+] [2] [+] [3] [+] [1] [+] [2] [+][3][+][1][+][2][+][3][+]



---------------------------------- VERSE 1 (3/4): (0:22 ' 1:10) ------------------------------------------

From bar 20 to 59: Repeat synth 1 Fig.1A and Yannis Fig.1A. Also, Walter Fig.1A keeps
repeating until the chorus, but I'll tab again the 8 bars just to be clear.

From bar 20 to 27: Repeat Synth 2 Fig.2A; Jimmy Fig.2A; Walter Fig.1A.
Synth 2: Fig.2A
(20) (21) (22) (23)


e||--------22--------------|--------22--------------|--------22--------------|--------22--------------|
B||------------------------|------------------------|------------------------|------------------------|
G||------------------------|------------------------|------------------------|------------------------|
D||------------------------|------------------------|------------------------|------------------------|
A||------------------------|------------------------|------------------------|------------------------|
D||------------------------|------------------------|------------------------|------------------------|

Jim[1]my: [+]Fig.[2]2A ([+]On l[3]ive [+]perfo[1]rman[+]ces [2]Jimm[+]y ad[3]ds d[+]elay)[1][+][2][+][3][+][1][+][2][+][3][+]


e||------------------------|------------------------|------------------------|------------------------|
B||17------15--17----------|17------15--17----------|17------15--17----------|17------15--17----------|
G||----------------14------|----------------14------|----------------14------|----------------14------|
D||------------------------|------------------------|------------------------|------------------------|
A||------------------------|------------------------|------------------------|------------------------|
D||------------------------|------------------------|------------------------|------------------------|

Wal[1]ter:[+] Fig[2].1A[+][3][+][1][+][2][+][3][+][1][+][2][+][3][+][1][+][2][+][3][+]


G||-----------------------|------------------------|------------------------|------------------------|
D||12------------------12--|12------------------12--|12------------------12--|12----------------------|
A||-----------------------|------------------------|------------------------|--------------------13--|
E||------------------------|------------------------|------------------------|------------------------|

Syn[1]th 2[+]: [2][+][3][+][1][+][2][+][3][+][1][+][2][+][3][+][1][+][2][+][3][+]
[(24)] [(25)] [(26)] [(27)]

e|--------20--------------|--------20--------------|--------20--------------|--------20--------------||
B|------------------------|------------------------|------------------------|------------------------||
G|------------------------|------------------------|------------------------|------------------------||
D|------------------------|------------------------|------------------------|------------------------||
A|------------------------|------------------------|------------------------|------------------------||
D|------------------------|------------------------|------------------------|------------------------||

Ji[1]mmy:[+][2][+][3][+][1][+][2][+][3][+][1][+][2][+][3][+][1][+][2][+][3][+]


e|------------------------|------------------------|------------------------|------------------------||
B|17------15--------------|17------15--------------|17------15--------------|17------15--------------||
G|------------17--14------|------------17--14------|------------17--14------|------------17--14------||
D|------------------------|------------------------|------------------------|------------------------||
A|------------------------|------------------------|------------------------|------------------------||
D|------------------------|------------------------|------------------------|------------------------||

Wa[1]lter[+]:[2][+][3][+][1][+][2][+][3][+][1][+][2][+][3][+][1][+][2][+][3][+]


G|------------------------|------------------------|------------------------|-----------------------||
D|------------------------|------------------------|------------------------|--------------------12--||
A|13------------------13--|13------------------13--|13------------------15--|15---------------------||
E|------------------------|------------------------|------------------------|------------------------||

[1] [+] [2] [+] [3] [+] [1] [+] [2] [+][3][+][1][+][2][+][3][+][1][+][2][+][3][+]
From bar 28 to 35: Repeat Synth 2 Fig.2A; Jimmy Fig.2B
Jimmy: Fig.2B
(28) (29) (30) (31)


e||------------17----------|------------17----------|------------17----------|------------17----------|
B||17------15--------------|17------15--------------|17------15--------------|17------15--------------|
G||----------------14------|----------------14------|----------------14------|----------------14------|
D||------------------------|------------------------|------------------------|------------------------|
A||------------------------|------------------------|------------------------|------------------------|
D||------------------------|------------------------|------------------------|------------------------|

Jim[1]my:[+][2][+][3][+][1][+][2][+][3][+][1][+][2][+][3][+][1][+][2][+][3][+]
[(32)] [(33)] [(34)] [(35)]

e|------------------------|------------------------|------------------------|------------------------||
B|17------15--------------|17------15--------------|17------15--------------|17------15--------------||
G|------------17--14------|------------17--14------|------------17--14------|------------17--14------||
D|------------------------|------------------------|------------------------|------------------------||
A|------------------------|------------------------|------------------------|------------------------||
D|------------------------|------------------------|------------------------|------------------------||

[1] [+] [2] [+] [3] [+] [1] [+] [2] [+][3][+][1][+][2][+][3][+][1][+][2][+][3][+]
From bar 36 to 43: Repeat Synth 2 Fig.2B; Jimmy Fig.2C
Synth 2: Fig.2B
(36) (37) (38) (39)


e||--------22--------------|--------22--------------|--------22--------------|--------22--------------|
B||------------------------|------------------------|------------------------|------------------------|
G||------------------------|------------------------|------------------------|------------------------|
D||------------------------|------------------------|------------------------|------------------------|
A||------------------------|------------------------|------------------------|------------------------|
D||------------------------|------------------------|------------------------|------------------------|

Jim[1]my: [+]Fig.[2]2C[+][3][+][1][+][2][+][3][+][1][+][2][+][3][+][1][+][2][+][3][+]


e||------------------------|------------------------|------------------------|------------------------|
B||17------15--------------|17------15--------------|17------15--------------|17------15--------------|
G||------------17--14------|------------17--14------|------------17--14------|------------17--14------|
D||------------------------|------------------------|------------------------|------------------------|
A||------------------------|------------------------|------------------------|------------------------|
D||------------------------|------------------------|------------------------|------------------------|

Syn[1]th 2[+]: [2][+][3][+][1][+][2][+][3][+][1][+][2][+][3][+][1][+][2][+][3][+]
(40) (41) (42) (43)


e|--------17--------------|--------17--------------|--------15--------------|--------15--------------||
B|------------------------|------------------------|------------------------|------------------------||
G|------------------------|------------------------|------------------------|------------------------||
D|------------------------|------------------------|------------------------|------------------------||
A|------------------------|------------------------|------------------------|------------------------||
D|------------------------|------------------------|------------------------|------------------------||

Ji[1]mmy:[+][2][+][3][+][1][+][2][+][3][+][1][+][2][+][3][+][1][+][2][+][3][+]


e|17----------------------|17----------------------|17----------------------|17----------------------||
B|--------17--15----------|--------17--15----------|--------17--15----------|--------17--15----------||
G|----------------14------|----------------14------|----------------14------|----------------14------||
D|------------------------|------------------------|------------------------|------------------------||
A|------------------------|------------------------|------------------------|------------------------||
D|------------------------|------------------------|------------------------|------------------------||

[1] [+] [2] [+] [3] [+] [1] [+] [2] [+][3][+][1][+][2][+][3][+][1][+][2][+][3][+]
From bar 44 to 51: Repeat Jimmy's Fig.2A and Synth 2 Fig.2B
From bar 52 to 59: Repeat Jimmy's Fig.2D and Synth 2 Fig.2B

Jimmy: Fig.2D
[(52)] [(53)]

e||17----------------------|17----------------------||
B||--------17--15----------|--------17--15----------||
G||----------------14------|----------------14------||
D||------------------------|------------------------||
A||------------------------|------------------------||
D||------------------------|------------------------||

[1] [+] [2] [+] [3] [+] [1] [+] [2][+][3][+]


-------------------------------- CHORUS 1 (4/4): (1:10 ' 1:36) -----------------------------------------------

Yannis part in the album version you can barely hear it, you can notice the part in live performances.
From bar 60 to 67: Repeat Jimmy Fig.3A; Yannis Fig.3A, and Walter Fig.3A.
From bar 68 to 71: Repeat Jimmy Fig.3A; Yannis Fig.3B, and Walter Fig.3A.
Finally, from bar 72 to 75: Repeat Jimmy Fig.3A; Yannis Fig.3A, and Walter Fig.3A.

Jimmy: Fig.3A
(60) (61) (62) (63)


e||17-17-------------17-17-|------------------------|------------------------|------------------------||
B||------17-17-15-15-------|17-17-15-15-17-17-15-15-|17-17-15-15-------17-17-|15-15-------------------||
G||------------------------|------------------------|------------17-17-------|------17-17-14-14-17-14-||
D||------------------------|------------------------|------------------------|------------------------||
A||------------------------|------------------------|------------------------|------------------------||
D||------------------------|------------------------|------------------------|------------------------||

Yan[1]nis[+]: F[2]ig.[+]3A [3](Wi[+]th [4]dis[+]tort[1]ion[+] an[2]d d[+]ela[3]y)[+][4][+][1][+][2][+][3][+][4][+][1][+][2][+][3][+][4][+]


e||------------------------|------------------------|------------------------|------------------------||
B||------------------------|------------------------|------------------------|------------------------||
G||------------------------|------------------------|------------------------|------------------------||
D||19-19-19-19-19-19-19-19-|19-19-19-19-19-19-19-19-|15-15-15-15-15-15-15-15-|14-14-14-14-12-12-12-12-||
A||------------------------|------------------------|------------------------|------------------------||
D||19-19-19-19-19-19-19-19-|19-19-19-19-19-19-19-19-|15-15-15-15-15-15-15-15-|14-14-14-14-12-12-12-12-||

Wal[1]ter[+]: F[2]ig.[+]3A[3][+][4][+][1][+][2][+][3][+][4][+][1][+][2][+][3][+][4][+][1][+][2][+][3][+][4][+]


G||---------------------10/|12-------10/12----10----|------14---/15----------|------------------------||
D||---12-12----12----------|---------------------12-|------------------------|0--0-----0--0-----0-----||
A||------------------------|------------------------|------------------------|------------------------||
E||------------------------|------------------------|------------------------|------------------------||

Yan[1]nis[+]: F[2]ig.[+]3B [3](Wi[+]th [4]dis[+]tort[1]ion[+] an[2]d d[+]ela[3]y)[+][4][+][1][+][2][+][3][+][4][+][1][+][2][+][3][+][4][+]
(68) (69) (70) (71)


e||------------------------|------------------------|------------------------|------------------------||
B||------------------------|------------------------|------------------------|------------------------||
G||------------------------|------------------------|------------------------|------------------------||
D||19-19-19-19-19-19-19-19-|19-19-19-19-19-19-19-19-|12-12-12-12-12-12-12-12-|14-14-14-14-14-14-14-14-||
A||------------------------|------------------------|------------------------|------------------------||
D||19-19-19-19-19-19-19-19-|19-19-19-19-19-19-19-19-|12-12-12-12-12-12-12-12-|14-14-14-14-14-14-14-14-||

[1] [+] [2] [+] [3] [+] [4] [+] [1] [+] [2] [+][3][+][4][+][1][+][2][+][3][+][4][+][1][+][2][+][3][+][4][+]


-------------------------------- BREAKDOWN 1 (4/4): (1:36 ' 2:01) ------------------------------------------

From bar 76 to 79: Repeat Synth 2 Fig.4A; Jimmy Fig.4A; Yannis Fig.4 and Walter Fig.4A
From bar 80 to 83: Repeat Synth 2 Fig.4A; Jimmy Fig.4A; Yannis Fig.4 and Walter Fig.4B
From bar 84 to 87: Repeat Synth 2 Fig.4B; Jimmy Fig.4B; Yannis Fig.4 and Walter Fig.4A
From bar 88 to 91: Repeat Synth 2 Fig.4A; Jimmy Fig.4B; Yannis Fig.4 and Walter Fig.4B

Sytnh 2: Fig.4A (With some reverb)
(76) (77) (78) (79)


e||------------------------|------------------------|------------------------|------------------------||
B||------------------------|------------------------|---------15~~~~---------|------------------------||
G||------------------------|------------------------|14----------------------|------------------------||
D||0~~~~~~~~---------------|------------------------|------------------------|------------------------||
A||------------------------|------------------------|------------------------|------------------------||
D||------------------------|------------------------|------------------------|------------------------||

Jim[1]my:[+] Fi[2]g.4[+]A [3][+][4][+][1][+][2][+][3][+][4][+][1][+][2][+][3][+][4][+][1][+][2][+][3][+][4][+]


e||------------------------|------------------------|------------------------|------------------------||
B||------------------------|------------------------|------------------------|------------17-17-15-15-||
G||------17----------17----|------17----------17----|------17----------17----|17-17-14-14-------------||
D||------------------------|------------------------|------------------------|------------------------||
A||------------------------|------------------------|------------------------|------------------------||
D||------------------------|------------------------|------------------------|------------------------||

Yan[1]nis[+]: F[2]ig.[+]4 ([3]Pal[+]m m[4]ute[+]d an[1]d f[+]ast[2] pi[+]cki[3]ng)[+][4][+][1][+][2][+][3][+][4][+][1][+][2][+][3][+][4][+]


e||------------------------|------------------------|------------------------|------------------------||
B||------------------------|------------------------|------------------------|------------------------||
G||---19-19----19191919----|---19-19----19191919----|---19-19----19191919----|------------------------||
D||------------------------|------------------------|------------------------|------------------------||
A||------------------------|------------------------|------------------------|------------------------||
D||------------------------|------------------------|------------------------|------------------------||

Wal[1]ter[+]: F[2]ig.[+]4A [3][+][4][+][1][+][2][+][3][+][4][+][1][+][2][+][3][+][4][+][1][+][2][+][3][+][4][+]


G||------------------------|------------------------|------------------------|------------------------||
D||12-12-12-12-12-12-12-12-|12-12-12-12-12-12-12-12-|------------------------|------------10-10-10-10-||
A||------------------------|------------------------|13-13-13-13-13-13-13-13-|8--8--8--8--------------||
E||------------------------|------------------------|------------------------|------------------------||

Wal[1]ter[+]: F[2]ig.[+]4B[3][+][4][+][1][+][2][+][3][+][4][+][1][+][2][+][3][+][4][+][1][+][2][+][3][+][4][+]
(80) (81) (82) (83)


G||------------------------|------------------------|------------------------|10-10-10-10-------------||
D||12-12-12-12-12-12-12-12-|12-12-12-12-12-12-12-12-|------------------------|------------10-10-10-10-||
A||------------------------|------------------------|13-13-13-13-13-13-13-13-|------------------------||
E||------------------------|------------------------|------------------------|------------------------||

Syt[1]nh [+]2: [2]Fig[+].4B[3] (W[+]ith[4] so[+]me r[1]eve[+]rb)[2][+][3][+][4][+][1][+][2][+][3][+][4][+][1][+][2][+][3][+][4][+]
(84) (85) (86) (87)


e||------------------------|------------------------|---------17~~~~---------|------------------------||
B||------------------------|------------------------|15----------------------|------------------------||
G||------------------------|------------------------|------------------------|------------------------||
D||0~~~~~~~~---------------|------------------------|------------------------|------------------------||
A||------------------------|------------------------|------------------------|------------------------||
D||------------------------|------------------------|------------------------|------------------------||

Jim[1]my:[+] Fi[2]g.4[+]B [3][+][4][+][1][+][2][+][3][+][4][+][1][+][2][+][3][+][4][+][1][+][2][+][3][+][4][+]


e||------------------------|------------------------|------------------------|------------------------||
B||------------------------|------------------------|------------------------|------------------15-15-||
G||------17----------17----|------17----------17----|------17----------17----|17-17-14-14-------------||
D||------------------------|------------------------|------------------------|------------17-17-------||
A||------------------------|------------------------|------------------------|------------------------||
D||------------------------|------------------------|------------------------|------------------------||

[1] [+] [2] [+] [3] [+] [4] [+] [1] [+] [2] [+][3][+][4][+][1][+][2][+][3][+][4][+][1][+][2][+][3][+][4][+]


------------------------------------- VERSE 2 (3/4): (2:01 ' 2:30) -------------------------------------------

I tabbed what Yannis plays live.
From bar 92 to 95: Repeat Walter Fig.5A; synth 1 Fig.5A starts after the 3rd beat of bar 95.
From bar 96 to 99: Repeat Walter Fig.5A; synth 1 Fig.5A and synth 2 Fig.5A.
From bar 100 to 107: Repeat Walter Fig.5B; synth 1 Fig.5A; synth 2 Fig.5A and Jimmy Fig.5A.
From bar 108 to 115: Repeat Walter Fig.5B; synth 1 Fig.5A; synth 2 Fig.5A; Jimmy Fig.5B, and Yannis Fig.5A
starts at bar 109.

Synth 1: Fig.5A
[(92)] [(93)] [(94)] [(95)]

e|------------------------|------------------------|------------------------|------------------------|
B|------------------------|------------------------|------------------------|------------------------|
G|------------------------|------------------------|------------------------|------------------------|
D|------------------------|------------------------|------------------------|------------------191715|
A|------------------------|------------------------|------------------------|------------------------|
D|------------------------|------------------------|------------------------|------------------------|

Wa[1]lter[+]: Fi[2]g.5A[+][3][+][1][+][2][+][3][+][1][+][2][+][3][+][1][+][2][+][3][+]


G||------------------------|------------------------|------------------------|------------------------||
D||12----12----12--12------|12----12----12--12------|12---12-----12--12------|12---12-----12--12------||
A||------------------------|------------------------|------------------------|------------------------||
E||------------------------|------------------------|------------------------|------------------------||

Syn[1]th 1[+]: Fi[2]g.5A[+][3][+][1][+][2][+][3][+][1][+][2][+][3][+][1][+][2][+][3][+]
(96) (97) (98) (99)


e||------------------------|------------------------|------------------------|------------------------||
B||------------------------|------------------------|------------------------|------------------------||
G||------------------------|------------------------|------------------------|------------------------||
D||------------------191715|------------------191715|------------------191715|------------------191715||
A||17----17----17----------|17----17----17----------|17----17----17----------|17----17----17----------||
D||------------------------|------------------------|------------------------|------------------------||

Syn[1]th 2[+]: Fi[2]g.5A[+][3][+][1][+][2][+][3][+][1][+][2][+][3][+][1][+][2][+][3][+]


e||------------------------|------------------------|------------------------|------------------------||
B||15----15----15--15------|15----15----15----------|15----15----15----------|15----15----15--15------||
G||------------------------|------------------------|------------------------|------------------------||
D||------------------------|------------------------|------------------------|------------------------||
A||------------------------|------------------------|------------------------|------------------------||
D||------------------------|------------------------|------------------------|------------------------||

Jim[1]my: [+]Fig.[2]5A[+][3][+][1][+][2][+][3][+][1][+][2][+][3][+][1][+][2][+][3][+]
(100) (101) (102) (103)


e||------------------------|------------------------|------------------------|------------------------|
B||------------------------|------------------------|------------------------|------------------------|
G||17----------------------|17----------------------|17----------------------|17----------------------|
D||------------------------|------------------------|------------------------|------------------------|
A||------------------------|------------------------|------------------------|------------------------|
D||------------------------|------------------------|------------------------|------------------------|

Wal[1]ter:[+] Fig[2].5B[+][3][+][1][+][2][+][3][+][1][+][2][+][3][+][1][+][2][+][3][+]


G||------------------------|------------------------|------------------------|------------------------|
D||12----12----12--12------|12----12----12--12------|12---12-----12--12------|12---12-----12--12------|
A||------------------------|------------------------|------------------------|------------------------|
E||------------------------|------------------------|------------------------|------------------------|

Jim[1]my:[+][2][+][3][+][1][+][2][+][3][+][1][+][2][+][3][+][1][+][2][+][3][+]
(104) (105) (106) (107)


e|------------------------|--------17--------------|--------17--------------|--------17--------------||
B|------------------------|------------------------|------------------------|------------------------||
G|14----------------------|14----------------------|14----------------------|14----------------------||
D|------------------------|------------------------|------------------------|------------------------||
A|------------------------|------------------------|------------------------|------------------------||
D|------------------------|------------------------|------------------------|------------------------||

Wa[1]lter[+]: Fi[2]g.5B[+][3][+][1][+][2][+][3][+][1][+][2][+][3][+][1][+][2][+][3][+]


G|------------------------|------------------------|------------------------|------------------------||
D|------------------------|------------------------|10---10-----10--10------|10---10-----10--10------||
A|13----13----13--13------|13----13----13--13------|------------------------|------------------------||
E|------------------------|------------------------|------------------------|------------------------||

Ji[1]mmy:[+] Fig[2].5B[+][3][+][1][+][2][+][3][+][1][+][2][+][3][+][1][+][2][+][3][+]
(108) (109) (110) (111)


e||------------------------|------------------------|------------------------|------------------------|
B||------------------------|------------------------|------------------------|------------------------|
G||17----------------------|17----------------------|17----------------------|17----------------------|
D||------------------------|------------------------|------------------------|------------------------|
A||------------------------|------------------------|------------------------|------------------------|
D||------------------------|------------------------|------------------------|------------------------|

Yan[1]nis:[+] Fig[2].5A [+](Fas[3]t pi[+]cking[1] wit[+]h re[2]verb[+] and[3] del[+]ay)[1][+][2][+][3][+][1][+][2][+][3][+]


e||------------------------|------------------------|------------------------|------------------------|
B||------------------------|------------------------|------------------------|------------------------|
G||------------------------|----------------14--14--|141414141414141414141414|141414141414141414141414|
D||------------------------|------------------------|------------------------|------------------------|
A||------------------------|------------------------|------------------------|------------------------|
D||------------------------|------------------------|------------------------|------------------------|

Jim[1]my:[+][2][+][3][+][1][+][2][+][3][+][1][+][2][+][3][+][1][+][2][+][3][+]
[(112)] [(113)] [(114)] [(115)]

e|--------17--------------|--------17--------------|--------17--------------|--------17--------------||
B|------------------------|------------------------|------------------------|------------------------||
G|14----------------------|14----------------------|14----------------------|14----------------------||
D|------------------------|------------------------|------------------------|------------------------||
A|------------------------|------------------------|------------------------|------------------------||
D|------------------------|------------------------|------------------------|------------------------||

Ya[1]nnis[+]: [2][+][3][+][1][+][2][+][3][+][1][+][2][+][3][+][1][+][2][+][3][+]


e|------------------------|------------------------|------------------------|------------------------||
B|------------------------|------------------------|171717171717171717171717|171717171717171717171717||
G|171717171717171717171717|171717171717171717171717|------------------------|------------------------||
D|------------------------|------------------------|------------------------|------------------------||
A|------------------------|------------------------|------------------------|------------------------||
D|------------------------|------------------------|------------------------|------------------------||

[1] [+] [2] [+] [3] [+] [1] [+] [2] [+][3][+][1][+][2][+][3][+][1][+][2][+][3][+]


------------------------------- BREAKDOWN 2 PART 1 (3/4): (2:30 ' 2:59) -------------------------------------

At this point of the song, a lot of things are happening. There are many layers of trumpets, synths, guitars
and delay; I tabbed the synth/trumpets in just one melody harmonizing Yannis guitar.
Synth 1 and Synth 2 plays the same notes just in different octaves, so I just tab Synth 1 which is the
higher oct.

From bar 116 to 123: Repeat Synth 1 Fig.6A; Jimmy Fig.6A; Yannis Fig.6A, and Walter Fig.6A.
From bar 124 to 139: Repeat Synth 1 Fig.6B; Jimmy Fig.6A; Yannis Fig.6B, and Walter Fig.6A.

Synth 1: Fig.6A (With reverb and delay)
(116) (117) (118) (119)


e||------------------------|------------------------|------------------------|------------------------|

B||171717171717171717171717|171717171717171717171717|171717171717171717171717|171717171717171717171717|


G||------------------------|------------------------|------------------------|------------------------|
D||------------------------|------------------------|------------------------|------------------------|
A||------------------------|------------------------|------------------------|------------------------|
D||------------------------|------------------------|------------------------|------------------------|

Jim[1]my: [+]Fig.[2]6A[+][3][+][1][+][2][+][3][+][1][+][2][+][3][+][1][+][2][+][3][+]


e||22----------------------|22----------------------|22----------------------|22----------------------|
B||--------17--------------|--------17--------------|--------17--------------|--------17--------------|
G||------------19--17------|------------19--17------|------------19--17------|------------19--17------|
D||------------------------|------------------------|------------------------|------------------------|
A||------------------------|------------------------|------------------------|------------------------|
D||------------------------|------------------------|------------------------|------------------------|

Yan[1]nis:[+] Fig[2].6A [+](Fas[3]t pi[+]cking[1] wit[+]h re[2]verb[+] and[3] del[+]ay)[1][+][2][+][3][+][1][+][2][+][3][+]


e||------------------------|------------------------|------------------------|------------------------|

B||171717171717171717171717|171717171717171717171717|171717171717171717171717|171717171717171717171717|


G||------------------------|------------------------|------------------------|------------------------|
D||------------------------|------------------------|------------------------|------------------------|
A||------------------------|------------------------|------------------------|------------------------|
D||------------------------|------------------------|------------------------|------------------------|

Wal[1]ter:[+] Fig[2].6A[+][3][+][1][+][2][+][3][+][1][+][2][+][3][+][1][+][2][+][3][+]


G||------------------------|------------------------|------------------------|------------------------|
D||------------------------|------------------------|------------------------|------------------------|
A||5-----5-----5---5-------|5-----5-----5---5-------|5----5------5---5-------|5----5------5---5-------|
E||------------------------|------------------------|------------------------|------------------------|

Syn[1]th 1[+]: [2][+][3][+][1][+][2][+][3][+][1][+][2][+][3][+][1][+][2][+][3][+]
(120) (121) (122) (123)
e|151515151515151515151515|151515151515151515151515|171717171717171717171717|202020202020202020202020||


B|------------------------|------------------------|------------------------|------------------------||
G|------------------------|------------------------|------------------------|------------------------||
D|------------------------|------------------------|------------------------|------------------------||
A|------------------------|------------------------|------------------------|------------------------||
D|------------------------|------------------------|------------------------|------------------------||

Ji[1]mmy:[+] [2][+][3][+][1][+][2][+][3][+][1][+][2][+][3][+][1][+][2][+][3][+]


e|------------------------|------------------------|------------------------|------------------------||
B|22------17--------------|22------17--------------|20------17--------------|20------17--------------||
G|------------19--17------|------------19--17------|------------19--17------|------------19--17------||
D|------------------------|------------------------|------------------------|------------------------||
A|------------------------|------------------------|------------------------|------------------------||
D|------------------------|------------------------|------------------------|------------------------||

Ya[1]nnis[+]: [2][+][3][+][1][+][2][+][3][+][1][+][2][+][3][+][1][+][2][+][3][+]


e|------------------------|------------------------|171717171717171717171717|171717171717171717171717||
B|151515151515151515151515|151515151515151515151515|------------------------|------------------------||
G|------------------------|------------------------|------------------------|------------------------||
D|------------------------|------------------------|------------------------|------------------------||
A|------------------------|------------------------|------------------------|------------------------||
D|------------------------|------------------------|------------------------|------------------------||

Wa[1]lter[+]: [2][+][3][+][1][+][2][+][3][+][1][+][2][+][3][+][1][+][2][+][3][+]


G|------------------------|------------------------|------------------------|------------------------||
D|------------------------|------------------------|------------------------|------------------------||
A|1-----1-----1---1-------|1-----1-----1---1-------|3----3------3---3-------|3----3------3---3-------||
E|------------------------|------------------------|------------------------|------------------------||

[1] [+] [2] [+] [3] [+] [1] [+] [2] [+][3][+][1][+][2][+][3][+][1][+][2][+][3][+]
Synth 1: Fig.6B (With reverb and delay)
[(124)] [(125)] [(126)] [(127)]

e||------------------------|------------------------|------------------------|------------------------|

B||171717171717171717171717|171717171717171717171717|171717171717171717171717|171717171717171717171717|


G||------------------------|------------------------|------------------------|------------------------|
D||------------------------|------------------------|------------------------|------------------------|
A||------------------------|------------------------|------------------------|------------------------|
D||------------------------|------------------------|------------------------|------------------------|

Yan[1]nis:[+] Fig[2].6B [+](Fas[3]t pi[+]cking[1] wit[+]h re[2]verb[+] and[3] del[+]ay)[1][+][2][+][3][+][1][+][2][+][3][+]


e||------------------------|------------------------|------------------------|------------------------|

B||171717171717171717171717|171717171717171717171717|171717171717171717171717|171717171717171717171717|


G||------------------------|------------------------|------------------------|------------------------|
D||------------------------|------------------------|------------------------|------------------------|
A||------------------------|------------------------|------------------------|------------------------|
D||------------------------|------------------------|------------------------|------------------------|

Syn[1]th 1[+]: [2][+][3][+][1][+][2][+][3][+][1][+][2][+][3][+][1][+][2][+][3][+]
(128) (129) (130) (131)


e|------------------------|------------------------|171717171717171717171717|202020202020202020202020||
B|151515151515151515151515|151515151515151515151515|------------------------|------------------------||
G|------------------------|------------------------|------------------------|------------------------||
D|------------------------|------------------------|------------------------|------------------------||
A|------------------------|------------------------|------------------------|------------------------||
D|------------------------|------------------------|------------------------|------------------------||

Ya[1]nnis[+]: [2][+][3][+][1][+][2][+][3][+][1][+][2][+][3][+][1][+][2][+][3][+]
e|151515151515151515151515|151515151515151515151515|171717171717171717171717|171717171717171717171717||


B|------------------------|------------------------|------------------------|------------------------||
G|------------------------|------------------------|------------------------|------------------------||
D|------------------------|------------------------|------------------------|------------------------||
A|------------------------|------------------------|------------------------|------------------------||
D|------------------------|------------------------|------------------------|------------------------||

[1] [+] [2] [+] [3] [+] [1] [+] [2] [+][3][+][1][+][2][+][3][+][1][+][2][+][3][+]


------------------------------------ BREAKDOWN 2 PART 2 (3/4): (2:59 ' 3:38) --------------------------------

The same, lots of layers, delays, etc.

From bar 140 to 147:DRUMS STOPSRepeat Synth 1 fig.7A; Synth 2 Fig.7A; Jimmy Fig.7A;
Yannis Fig.7A; Walter Fig.7A.
From bar 148 to 171:DRUMS STARTRepeat Synth 1 fig.7B; Synth 2 Fig.7A; Jimmy Fig.7A;
Yannis Fig.7B; Walter Fig.7A.

Synth 1: Fig.7A
(140) (141) (142) (143)


e||------------------------|------------------------|------------------------|------------------------|

B||171717171717171717171717|171717171717171717171717|171717171717171717171717|171717171717171717171717|


G||------------------------|------------------------|------------------------|------------------------|
D||------------------------|------------------------|------------------------|------------------------|
A||------------------------|------------------------|------------------------|------------------------|
D||------------------------|------------------------|------------------------|------------------------|

Syn[1]th 2[+]: Fi[2]g.7A[+][3][+][1][+][2][+][3][+][1][+][2][+][3][+][1][+][2][+][3][+]


e||------------------------|------------------------|------------------------|------------------------|

B||151515151515151515151515|151515151515151515151515|151515151515151515151515|151515151515151515151515|


G||------------------------|------------------------|------------------------|------------------------|
D||------------------------|------------------------|------------------------|------------------------|
A||------------------------|------------------------|------------------------|------------------------|
D||------------------------|------------------------|------------------------|------------------------|

Jim[1]my: [+]Fig.[2]7A[+][3][+][1][+][2][+][3][+][1][+][2][+][3][+][1][+][2][+][3][+]


e||22----------------------|22----------------------|22----------------------|22----------------------|
B||--------17--------------|--------17--------------|--------17--------------|--------17--------------|
G||------------19--17--19--|------------19--17--19--|------------19--17--19--|------------19--17--19--|
D||------------------------|------------------------|------------------------|------------------------|
A||------------------------|------------------------|------------------------|------------------------|
D||------------------------|------------------------|------------------------|------------------------|

Yan[1]nis:[+] Fig[2].7A[+][3][+][1][+][2][+][3][+][1][+][2][+][3][+][1][+][2][+][3][+]


e||------------------------|------------------------|------------------------|------------------------|

B||171717171717171717171717|171717171717171717171717|171717171717171717171717|171717171717171717171717|


G||------------------------|------------------------|------------------------|------------------------|
D||------------------------|------------------------|------------------------|------------------------|
A||------------------------|------------------------|------------------------|------------------------|
D||------------------------|------------------------|------------------------|------------------------|

Wal[1]ter:[+] Fig[2].7A[+][3][+][1][+][2][+][3][+][1][+][2][+][3][+][1][+][2][+][3][+]


G||------------------------|------------------------|------------------------|------------------------|
D||------------------------|------------------------|------------------------|------------------------|
A||5---5---5---5---5---5---|5---5---5---5---5---5---|5---5---5---5---5---5---|5---5---5---5---5---5---|
E||------------------------|------------------------|------------------------|------------------------|

Syn[1]th 1[+]: [2][+][3][+][1][+][2][+][3][+][1][+][2][+][3][+][1][+][2][+][3][+]
e[(144)]|151515151515151515151515[(145)]|151515151515151515151515[(146)]|171717171717171717171717[(147)]|202020202020202020202020||


B|------------------------|------------------------|------------------------|------------------------||
G|------------------------|------------------------|------------------------|------------------------||
D|------------------------|------------------------|------------------------|------------------------||
A|------------------------|------------------------|------------------------|------------------------||
D|------------------------|------------------------|------------------------|------------------------||

Sy[1]nth [+]2: [2][+][3][+][1][+][2][+][3][+][1][+][2][+][3][+][1][+][2][+][3][+]
e|171717171717171717171717|171717171717171717171717|151515151515151515151515|151515151515151515151515||


B|------------------------|------------------------|------------------------|------------------------||
G|------------------------|------------------------|------------------------|------------------------||
D|------------------------|------------------------|------------------------|------------------------||
A|------------------------|------------------------|------------------------|------------------------||
D|------------------------|------------------------|------------------------|------------------------||

Ji[1]mmy:[+] [2][+][3][+][1][+][2][+][3][+][1][+][2][+][3][+][1][+][2][+][3][+]


e|------------------------|------------------------|------------------------|------------------------||
B|22------17--------------|22------17--------------|20------17--------------|20------17--------------||
G|------------19--17--19--|------------19--17--19--|------------19--17--19--|------------19--17--19--||
D|------------------------|------------------------|------------------------|------------------------||
A|------------------------|------------------------|------------------------|------------------------||
D|------------------------|------------------------|------------------------|------------------------||

Ya[1]nnis[+]: [2][+][3][+][1][+][2][+][3][+][1][+][2][+][3][+][1][+][2][+][3][+]


e|------------------------|------------------------|171717171717171717171717|171717171717171717171717||
B|151515151515151515151515|151515151515151515151515|------------------------|------------------------||
G|------------------------|------------------------|------------------------|------------------------||
D|------------------------|------------------------|------------------------|------------------------||
A|------------------------|------------------------|------------------------|------------------------||
D|------------------------|------------------------|------------------------|------------------------||

Wa[1]lter[+]: [2][+][3][+][1][+][2][+][3][+][1][+][2][+][3][+][1][+][2][+][3][+]


G|------------------------|------------------------|------------------------|------------------------||
D|------------------------|------------------------|------------------------|------------------------||
A|1---1---1---1---1---1---|1---1---1---1---1---1---|3---3---3---3---3---3---|3---3---3---3---3---3---||
E|------------------------|------------------------|------------------------|------------------------||

Chords List

Chord: Tron - Foals - tab, song lyric, sheet, guitar, ukulele
Maybe you like