Chord/Tab song: Three Year Old - Eric Church

Chord,Tablature, lyric, sheet, guitar, ukulele song: Three Year Old - Eric Church - ( Capo 8 Intro: [D] [G] [D] E |------|------------------...)

--
Capo 8

Intro:
[D] [G] [D]

E |------|-------------------------------------|-----------------------------------|
B |------|--3------3----3----3------3----------|-----------------3-----------------|
G |------|--2------2----2----2------2----------|--0------0----2--2-----------------|
D |-0-2--|--2h-4---4----2----0------0----------|--0------0----0--0-----------------|
A |------|-----------------------------0-------|--0h-2---2-------------------------|
E |------|-------------------------------------|-----------------------------------|


[Em7] [G] [D]

---------------------------------------------|-------||
--3-------0-----0-------0--------0-----0--3--|--3----||
--0-------2-----2-------0--------0-----0--2--|--2----||
--0h-2----2-----2-------2h-0-----0-----0--0--|--0----||
---------------------------------------2-----|-------||
---------------------------------------------|-------||


Verse 1:
Use [D]every crayon [G]color that you've got[D]
[D]A fishing pole sinks faster [A]than a tackle box[Asus4]
[D]Nothing turns a day around like [G]licking a mixing [D]bowl
[D]I learned that from a [A]three year ol[D]d

Verse 2:
A [D]garbage can is a damn good [G]spot to hide truck [D]keys
Why [D]go inside when you can [A]go behind a tree?[Asus4]
Walking [D]barefoot through the mud will knock the [G]rust right off your [D]soul
[D]I learned that from a [A]three year [D]old

Chorus:
[Em] You can be a cowboy on the [G6]moon
[Em] Dig to China with a spoo[G6]n
[G6] Talk to Jesus on the pho[Em]ne
[Em] Say "I love you" all day l[G6]ong
[D] And when you're wrong, you shoul[D/A]d just say [G]so
[D]I learned that from a [A]three year ol[D]d

Interlude: (Same as intro)
|D |G D |Em7 G |D |

Verse 3:
[D]"Mama is an angel, " I heard him [G]tell the man up[D]stairs
He went [D]on and on and back and forth like [A]God was laying there[Asus4]
[D]Tonight, I sleep me down to lay and [G]pray to keep my [D]soul
[D]Yeah, I learned that from a [A]three year [D]old

Chorus:
[Em] You can be a cowboy on the [G6]moon
[Em] Dig to China with a spoo[G6]n
[G6] Talk to Jesus on the pho[Em]ne
[Em] Say "I love you" all day l[G6]ong
[D] And when you're wrong, you shoul[D/A]d just say [G]so
[D]I learned that from a [A]three year ol[D]d

|Em |G6 |Em |

[G]Sometimes, all you need is a hand to [Em]hold
A couple arms to kill the [G]cold
[D] And when you're wrong, you shoul[D/A]d just say [G]so
[D]I learned that from a [A]three year ol[D]d
Yeah, honey, [D]I learned that from our [A]three year old

Outro: (Same as intro)
|D |G D |Em7 G |D |

Chords List

Chord: Three Year Old - Eric Church - tab, song lyric, sheet, guitar, ukulele
Maybe you like