Chord/Tab song: This Time - Wipers

Chord,Tablature, lyric, sheet, guitar, ukulele song: This Time - Wipers - ( Verse [B] [D] [A] [C] [G] [A] e-----------------------...)

--
Verse

[B] [D] [A] [C] [G] [A]

e------------------------------------------------
B------------------------------------------------
G--------------7-7-7---------5-5-5---------------
D---9-9-9-9----7-7-7--7-7-7--5-5-5--5-5-5--7-7/-- slight slide back
A---9-9-9-9----5-5-5--7-7-7--3-3-3--5-5-5--7-7/-- to first chord
E---7-7-7-7-----------5-5-5---------3-3-3--5-5/--



Chorus

[E] [B] [E] [B] [D]

e----------------------
B----------------------
G-------4-------4---7--
D---2---4---2---4---7--
A---2---2---2---2---5-- Then back to B for the verse
E---0-------0----------



Solo



e---12b----12b------------------
B---15b----15b----12b----12b----
G-----------------14b----14b---- big bends here.
D-------------------------------
A-------------------------------
E------------------------------- x4


This first part just plays over alternating E and B chords (Like the chorus)
The second part plays over a B chord, transitioning back to the verse.



e------------------------------------------------------------
B------------------------------------------------------------
G------------------------------------------------------------
D-------------------------------7-7-7b-7b-6-6-7b-7b-7b-7b----
A-----------7-7-9-9-6-6-7-7-9-9------------------------------
E---5-5-7-7--------------------------------------------------

Chords List

Chord: This Time - Wipers - tab, song lyric, sheet, guitar, ukulele
Maybe you like