Chord/Tab song: The Grand Delusion - Neck Deep

Chord,Tablature, lyric, sheet, guitar, ukulele song: The Grand Delusion - Neck Deep - ( [Opening] Guitar 2: "I'm Coming To The Conclusion..." D...)

--
[Opening] Guitar 2:
"I'm Coming To The Conclusion..."


D#|-----------------------------------------------------------------|
A#|--7--7--7----7--7--5--5--5--5------------------------------------|
F#|--7--7--7----7--7--6--6--6--6----7--7--7----7--7--7--7--9--9--9--|
C#|---------------------------------7--7--7----7--7--7--7--9--9--9--|
G#|-----------------------------------------------------------------|
C#|-----------------------------------------------------------------|
D#|-------------------------------------------------------|
A#|-------------------------------------------------------|
F#|--4--4--4----4--4--4--4----7--7--7----4--4--4----4--4--|
C#|--5--5--5----5--5--5--5----7--7--7----5--5--5----5--5--|
G#|-------------------------------------------------------|
C#|-------------------------------------------------------|


[Intro] Guitar 1
"Anyone Else But Me."


D#|-------------------------------|----------------------------------|
A#|-------------------------------|----------------------------------|
F#|-----------7--7--9--9--11--11--|-----------7--7--9--9--11---------|
C#|--9--9--9----------------------|--7--7--7------------------12p11--|
G#|-------------------------------|----------------------------------|
C#|-------------------------------|----------------------------------|
D#|-------------------------------|------------------------------|
A#|-------------------------------|------------------------------|
F#|-----------7--7--9--9--11--11--|-----------7--7--9--9--6h7p6--|
C#|--9--9--9----------------------|--7--7--7---------------------|
G#|-------------------------------|------------------------------|
C#|-------------------------------|------------------------------|


[Intro] Guitar 2
"Anyone Else But Me."


D#|------------------------------------------------------|
A#|------------------------------------------------------|
F#|--------------------------4--4--7--7------------------|
C#|--5--5--5----5--5--5--5---4--4--7--7---7--7--7--4--4--|
G#|--5--5--5----5--5--5--5---2--2--5--5---7--7--7--4--4--|
C#|--5--5--5----5--5--5--5----------------7--7--7--4--4--|(x2)


[Verse] Guitar 1
"This Straightjacket..."


D#|-----------|-----------------------------------|
A#|-----------|-----------------------------------|
F#|-----------|------------7--7--9--9--11---------|
C#|--9--9--9--|---7--7--7------------------12p11--|
G#|-----------|-----------------------------------|
C#|-----------|-----------------------------------|(x2)


[Verse] Guitar 2
"This Straightjacket..."


D#|-------|--------------------------------|
A#|-------|--------------------------------|
F#|-------|--7--7--7--7--7-----------------|
C#|--5-5--|--7--7--7--7--7--7--7--7--4--4--|
G#|--5-5--|--5--5--5--5--5--7--7--7--4--4--|
C#|--5-5--|-----------------7--7--7--4--4--|


[PreChorus] Guitar 1:
"And It's A Long Way Down..."


D#|----------------------------|--------------------------------------|
A#|----------------------------|--------------------------------------|
F#|--12--12--11-11-7--7--6--6--|--9--9--9--9--9--9--9--9--9--9--9--9--|
C#|---x---x--x--x--x--x--x--x--|--x--x--x--x--x--x--x--x--x--x--x--x--|
G#|--10--10--9--9--5--5--4--4--|--7--7--7--7--7--7--7--7--7--7--7--7--|
C#|----------------------------|--------------------------------------|
D#|----------------------------|------12------|
A#|----------------------------|--15------14--|
F#|--12--12--11-11-7--7--6--6--|--------------|
C#|---x---x--x--x--x--x--x--x--|--------------|
G#|--10--10--9--9--5--5--4--4--|--------------|
C#|----------------------------|--------------|


[PreChorus] Guitar 2:
"And It's A Long Way Down..."


D#|--------------------------|--------------------------------------------------|
A#|--------------------------|--------------------------------------------------|
F#|--------------------------|--------------------------------------------------|
C#|--2--2--4--4--5--5--0--0--|--7--7--7--7--7--7--7--7--7--7--7--7--7--7--7--7--|
G#|--2--2--4--4--5--5--0--0--|--7--7--7--7--7--7--7--7--7--7--7--7--7--7--7--7--|
C#|--2--2--4--4--5--5--0--0--|--7--7--7--7--7--7--7--7--7--7--7--7--7--7--7--7--|(x2)


[Chorus] Guitar 2:
"On My Head..."


D#|----------------------------------------------------------|
A#|----------------------------------------------------------|
F#|----------------------------------------------------------|
C#|--0--0--0----7--7--7--7--4--4--5--5--5----5--5--5--5--5/7-|
G#|--0--0--0----7--7--7--7--4--4--5--5--5----5--5--5--5--5/7-|
C#|--0--0--0----7--7--7--7--4--4--5--5--5----5--5--5--5--5/7-|(x2)
D#|--------------------------------------------------|----------------------------------------|
A#|--------------------------------------------------|----------------------------------------|
F#|--------------------------------------------------|----------------------------------------|
C#|--0--0--0--0--0--0--0--0--7--7--7--7--4--4--4--4--|--5--5--5--5--5--5--5--5--5--5--5--5/7--|
G#|--0--0--0--0--0--0--0--0--7--7--7--7--4--4--4--4--|--5--5--5--5--5--5--5--5--5--5--5--5/7--|
C#|--0--0--0--0--0--0--0--0--7--7--7--7--4--4--4--4--|--5--5--5--5--5--5--5--5--5--5--5--5/7--|
D#|--------------------------------------------|------------------------------------------|
A#|--------------------------------------------|------------------------------------------|
F#|--------------------------------------------|------------------------------------------|
C#|--2--2--2--2--2--2--2--2--2--2--2--2--4--4--|--5--5--5--5--5--5--5--5--7--7--7--7--7--7|
G#|--2--2--2--2--2--2--2--2--2--2--2--2--4--4--|--5--5--5--5--5--5--5--5--7--7--7--7--7--7|
C#|--2--2--2--2--2--2--2--2--2--2--2--2--4--4--|--5--5--5--5--5--5--5--5--7--7--7--7--7--7|


[Chorus] Guitar 1:
"On My Head..."


D#|--------------------------------------------------|--------------------------------------------------|
A#|--7--7--7--7--7--7--7--7--7--7--7--7--7--7--7--7--|--5--5--5--5--5--5--5--5--5--5--5--5--5--5--5--5--|
F#|--7--7--7--7--7--7--7--7--7--7--7--7--7--7--7--7--|--7--7--7--7--7--7--7--7--7--7--7--7--7--7--7--7--|
C#|--------------------------------------------------|--------------------------------------------------|
G#|--------------------------------------------------|--------------------------------------------------|
C#|--------------------------------------------------|--------------------------------------------------|(x6)
D#|--------------------------------------------------|--------------------------------------------------|
A#|--------------------------------------------------|--------------------------------------------------|
F#|--4--4--4--4--4--4--4--4--4--4--4--4--4--4--4--4--|--4--4--4--4--4--4--4--4--4--4--4--4--4--4--7--7--|
C#|--5--5--5--5--5--5--5--5--5--5--5--5--5--5--5--5--|--5--5--5--5--5--5--5--5--5--5--5--5--5--5--7--7--|
G#|--------------------------------------------------|--------------------------------------------------|
C#|--------------------------------------------------|--------------------------------------------------|
D#|--------------------------------------------------|--------------------------------------------------|
A#|--------------------------------------------------|--------------------------------------5--5--5--5--|
F#|--4--4--4--4--4--4--4--4--4--4--4--4--4--4--4--4--|--4--4--4--4--4--4--4--4--4--4--4--4--4--4--4--4--|
C#|--5--5--5--5--5--5--5--5--5--5--5--5--5--5--5--5--|--5--5--5--5--5--5--5--5--5--5--5--5--------------|
G#|--------------------------------------------------|--------------------------------------------------|
C#|--------------------------------------------------|--------------------------------------------------|


[Main Riff] Guitar 1
"Anyone Else But Me."


D#|-------------------------------|----------------------------------|
A#|-------------------------------|----------------------------------|
F#|-----------7--7--9--9--11--11--|-----------7--7--9--9--11---------|
C#|--9--9--9----------------------|--7--7--7------------------12p11--|
G#|-------------------------------|----------------------------------|
C#|-------------------------------|----------------------------------|
D#|-------------------------------|------------------------------|
A#|-------------------------------|------------------------------|
F#|-----------7--7--9--9--11--11--|-----------7--7--9--9--6h7p6--|
C#|--9--9--9----------------------|--7--7--7---------------------|
G#|-------------------------------|------------------------------|
C#|-------------------------------|------------------------------|


[Intro] Guitar 2
"Anyone Else But Me."


D#|------------------------------------------------------|
A#|------------------------------------------------------|
F#|--------------------------4--4--7--7------------------|
C#|--5--5--5----5--5--5--5---4--4--7--7---7--7--7--4--4--|
G#|--5--5--5----5--5--5--5---2--2--5--5---7--7--7--4--4--|
C#|--5--5--5----5--5--5--5----------------7--7--7--4--4--|(x2)


[Verse] Guitar 1
"This Stranger..."


D#|-----------|-----------------------------------|
A#|-----------|-----------------------------------|
F#|-----------|------------7--7--9--9--11---------|
C#|--9--9--9--|---7--7--7------------------12p11--|
G#|-----------|-----------------------------------|
C#|-----------|-----------------------------------|(x2)


[Verse] Guitar 2
"This Stranger..."


D#|-------|--------------------------------|
A#|-------|--------------------------------|
F#|-------|--7--7--7--7--7-----------------|
C#|--5-5--|--7--7--7--7--7--7--7--7--4--4--|
G#|--5-5--|--5--5--5--5--5--7--7--7--4--4--|
C#|--5-5--|-----------------7--7--7--4--4--|


[PreChorus] Guitar 1:
"And It's A Long Way Down..."


D#|----------------------------|--------------------------------------|
A#|----------------------------|--------------------------------------|
F#|--12--12--11-11-7--7--6--6--|--9--9--9--9--9--9--9--9--9--9--9--9--|
C#|---x---x--x--x--x--x--x--x--|--x--x--x--x--x--x--x--x--x--x--x--x--|
G#|--10--10--9--9--5--5--4--4--|--7--7--7--7--7--7--7--7--7--7--7--7--|
C#|----------------------------|--------------------------------------|
D#|----------------------------|------12------|
A#|----------------------------|--15------14--|
F#|--12--12--11-11-7--7--6--6--|--------------|
C#|---x---x--x--x--x--x--x--x--|--------------|
G#|--10--10--9--9--5--5--4--4--|--------------|
C#|----------------------------|--------------|


[PreChorus] Guitar 2:
"And It's A Long Way Down..."


D#|--------------------------|--------------------------------------------------|
A#|--------------------------|--------------------------------------------------|
F#|--------------------------|--------------------------------------------------|
C#|--2--2--4--4--5--5--0--0--|--7--7--7--7--7--7--7--7--7--7--7--7--7--7--7--7--|
G#|--2--2--4--4--5--5--0--0--|--7--7--7--7--7--7--7--7--7--7--7--7--7--7--7--7--|
C#|--2--2--4--4--5--5--0--0--|--7--7--7--7--7--7--7--7--7--7--7--7--7--7--7--7--|(x2)


[Chorus] Guitar 2:
"On My Head..."


D#|----------------------------------------------------------|
A#|----------------------------------------------------------|
F#|----------------------------------------------------------|
C#|--0--0--0----7--7--7--7--4--4--5--5--5----5--5--5--5--5/7-|
G#|--0--0--0----7--7--7--7--4--4--5--5--5----5--5--5--5--5/7-|
C#|--0--0--0----7--7--7--7--4--4--5--5--5----5--5--5--5--5/7-|(x2)
D#|--------------------------------------------------|----------------------------------------|
A#|--------------------------------------------------|----------------------------------------|
F#|--------------------------------------------------|----------------------------------------|
C#|--0--0--0--0--0--0--0--0--7--7--7--7--4--4--4--4--|--5--5--5--5--5--5--5--5--5--5--5--5/7--|
G#|--0--0--0--0--0--0--0--0--7--7--7--7--4--4--4--4--|--5--5--5--5--5--5--5--5--5--5--5--5/7--|
C#|--0--0--0--0--0--0--0--0--7--7--7--7--4--4--4--4--|--5--5--5--5--5--5--5--5--5--5--5--5/7--|
D#|--------------------------------------------|------------------------------------------|
A#|--------------------------------------------|------------------------------------------|
F#|--------------------------------------------|------------------------------------------|
C#|--2--2--2--2--2--2--2--2--2--2--2--2--4--4--|--5--5--5--5--5--5--5--5--7--7--7--7--7--7|
G#|--2--2--2--2--2--2--2--2--2--2--2--2--4--4--|--5--5--5--5--5--5--5--5--7--7--7--7--7--7|
C#|--2--2--2--2--2--2--2--2--2--2--2--2--4--4--|--5--5--5--5--5--5--5--5--7--7--7--7--7--7|


[Chorus] Guitar 1:
"On My Head..."


D#|--------------------------------------------------|--------------------------------------------------|
A#|--7--7--7--7--7--7--7--7--7--7--7--7--7--7--7--7--|--5--5--5--5--5--5--5--5--5--5--5--5--5--5--5--5--|
F#|--7--7--7--7--7--7--7--7--7--7--7--7--7--7--7--7--|--7--7--7--7--7--7--7--7--7--7--7--7--7--7--7--7--|
C#|--------------------------------------------------|--------------------------------------------------|
G#|--------------------------------------------------|--------------------------------------------------|
C#|--------------------------------------------------|--------------------------------------------------|(x6)
D#|--------------------------------------------------|--------------------------------------------------|
A#|--------------------------------------------------|--------------------------------------------------|
F#|--4--4--4--4--4--4--4--4--4--4--4--4--4--4--4--4--|--4--4--4--4--4--4--4--4--4--4--4--4--4--4--7--7--|
C#|--5--5--5--5--5--5--5--5--5--5--5--5--5--5--5--5--|--5--5--5--5--5--5--5--5--5--5--5--5--5--5--7--7--|
G#|--------------------------------------------------|--------------------------------------------------|
C#|--------------------------------------------------|--------------------------------------------------|
D#|--------------------------------------------------|--------------------------------------------------|
A#|--------------------------------------------------|--------------------------------------5--5--5--5--|
F#|--4--4--4--4--4--4--4--4--4--4--4--4--4--4--4--4--|--4--4--4--4--4--4--4--4--4--4--4--4--4--4--4--4--|
C#|--5--5--5--5--5--5--5--5--5--5--5--5--5--5--5--5--|--5--5--5--5--5--5--5--5--5--5--5--5--------------|
G#|--------------------------------------------------|--------------------------------------------------|
C#|--------------------------------------------------|--------------------------------------------------|


[PreBridge] Guitar 1:


D#|--------------|--------------|--------------|--------------|
A#|-----2-----3--|-----2-----3--|-----2-----3--|-----2-----3--|
F#|--4-----4-----|--2-----2-----|--------------|--0-----0-----|
C#|--------------|--------------|--2-----2-----|--------------|
G#|--------------|--------------|--------------|--------------|
C#|--------------|--------------|--------------|--------------|(x2)


[Bridge] Guitar 1:
"All Eyes On Me But That's Not Reality..."


D#|----------------------|----------------------|----------------------|------------------|
A#|------14------15--14--|------14------15--14--|------14------15--12--|------14------15--|
F#|--16------16----------|--14------14----------|----------------------|--12------12------|
C#|----------------------|----------------------|--14------14----------|------------------|
G#|----------------------|----------------------|----------------------|------------------|
C#|----------------------|----------------------|----------------------|------------------|(x2)
D#|--------------14------|----------------------|----------------------|------------------|
A#|------15----------14--|------14------15--14--|------14------15--12--|------14------15--|
F#|--16------16----------|--14------14----------|----------------------|--12------12------|
C#|----------------------|----------------------|--14------14----------|------------------|
G#|----------------------|----------------------|----------------------|------------------|
C#|----------------------|----------------------|----------------------|------------------|
D#|--------------14------|----------------------|----------------------|----------------------------|
A#|------15----------14--|------14------15--14--|------14------15--12--|--12/14--14--14--14/15--15--|
F#|--16------16----------|--14------14----------|----------------------|----------------------------|
C#|----------------------|----------------------|--14------14----------|----------------------------|
G#|----------------------|----------------------|----------------------|----------------------------|
C#|----------------------|----------------------|----------------------|----------------------------|


[Bridge] Guitar 2:
"All Eyes On Me But That's Not Reality..."


D#|-------------------------------------|------------------------------------|
A#|-------------------------------------|------------------------------------|
F#|-------------------------------------|------------------------------------|
C#|--9--9--9--9--9--9----7--7--7--7--7--|--2--2--2--2--2--2----5--5--5--5\4--|
G#|--9--9--9--9--9--9----7--7--7--7--7--|--2--2--2--2--2--2----5--5--5--5\4--|
C#|--9--9--9--9--9--9----7--7--7--7--7--|--2--2--2--2--2--2----5--5--5--5\4--|


[Main Riff] Guitar 1
"Holding It All In"


D#|-------------------------------|----------------------------------|
A#|-------------------------------|----------------------------------|
F#|-----------7--7--9--9--11--11--|-----------7--7--9--9--11---------|
C#|--9--9--9----------------------|--7--7--7------------------12p11--|
G#|-------------------------------|----------------------------------|
C#|-------------------------------|----------------------------------|
D#|-------------------------------|------------------------------|
A#|-------------------------------|------------------------------|
F#|-----------7--7--9--9--11--11--|-----------7--7--9--9--6h7p6--|
C#|--9--9--9----------------------|--7--7--7---------------------|
G#|-------------------------------|------------------------------|
C#|-------------------------------|------------------------------|


[Main Riff] Guitar 2
"Holding It All In"


D#|--------|-------------------------------|--------|-------------------------------------------------|
A#|--------|-------------------------------|--------|-------------------------------------------------|
A#|--------|--4--4-------------------------|--------|--4--4--7--7--7--7--7--7--7--7-------------------|
C#|--5--5--|--4--4--0--0----7--7--7--4--4--|--5--5--|--4--4--7--7--7--7--7--7--7--7--7--7--7--7--7--7-|
G#|--5--5--|--2--2--0--0----7--7--7--4--4--|--5--5--|--2--2--5--5--5--5--5--5--5--5--7--7--7--7--7--7-|
C#|--5--5--|--------0--0----7--7--7--4--4--|--5--5--|--------------------------------7--7--7--7--7--7-|(x2)


[Chorus] Guitar 2:
"On My Head..."


D#|--------------------------------------------------|----------------------------------------|
A#|--------------------------------------------------|----------------------------------------|
F#|--------------------------------------------------|----------------------------------------|
C#|--0--0--0--0--0--0--0--0--7--7--7--7--4--4--4--4--|--5--5--5--5--5--5--5--5--5--5--5--5/7--|
G#|--0--0--0--0--0--0--0--0--7--7--7--7--4--4--4--4--|--5--5--5--5--5--5--5--5--5--5--5--5/7--|
C#|--0--0--0--0--0--0--0--0--7--7--7--7--4--4--4--4--|--5--5--5--5--5--5--5--5--5--5--5--5/7--|(x2)
D#|-----------------------------------------------------------|
A#|-----------------------------------------------------------|
F#|-----------------------------------------------------------|
C#|--0--0--0----7--7--7--7--4--4--5--5--5----5--5--5--5--5/7--|
G#|--0--0--0----7--7--7--7--4--4--5--5--5----5--5--5--5--5/7--|
C#|--0--0--0----7--7--7--7--4--4--5--5--5----5--5--5--5--5/7--|
D#|----------------------------|--------------------------------------------|
A#|----------------------------|--------------------------------------------|
F#|----------------------------|--------------------------------------------|
C#|--2--2--2----2--2--2--4--4--|--5--5--5--5--5--5--5--5--7--7--7--7--7--7--|
G#|--2--2--2----2--2--2--4--4--|--5--5--5--5--5--5--5--5--7--7--7--7--7--7--|
C#|--2--2--2----2--2--2--4--4--|--5--5--5--5--5--5--5--5--7--7--7--7--7--7--|
D#|--------------------------------------------|-----------------------------|
A#|--------------------------------------------|-----------------------------|
F#|--------------------------------------------|-----------------------------|
C#|--2--2--2--2--2--2--2--2--2--2--2--2--4--4--|--5--5--5--5--5--5--5--5--7--|
G#|--2--2--2--2--2--2--2--2--2--2--2--2--4--4--|--5--5--5--5--5--5--5--5--7--|
C#|--2--2--2--2--2--2--2--2--2--2--2--2--4--4--|--5--5--5--5--5--5--5--5--7--|


[Final Chorus] Guitar 1:
"I'm Coming To The Conclusion..."


D#|--10--10--12--14--12--10--9--9h10--|--10--10--12--14--12--15--14--12\10--|
A#|-----------------------------------|-------------------------------------|
F#|-----------------------------------|-------------------------------------|
C#|-----------------------------------|-------------------------------------|
C#|-----------------------------------|-------------------------------------|
C#|-----------------------------------|-------------------------------------|
D#|--10--10--9--7--9--10--10--10p9--|--10--10--12--14--12--15\14--14--15/17--|
A#|---------------------------------|----------------------------------------|
F#|---------------------------------|----------------------------------------|
C#|---------------------------------|----------------------------------------|
C#|---------------------------------|----------------------------------------|
C#|---------------------------------|----------------------------------------|
D#|--17--17--15--14--12--15--14--12/10--|--10--10--12--14--15--22--|
A#|-------------------------------------|--------------------------|
F#|-------------------------------------|--------------------------|
C#|-------------------------------------|--------------------------|
C#|-------------------------------------|--------------------------|
C#|-------------------------------------|--------------------------|


[Main Riff] Guitar 1
"Anyone Else But Me"


D#|-------------------------------|----------------------------------|
A#|-------------------------------|----------------------------------|
F#|-----------7--7--9--9--11--11--|-----------7--7--9--9--11---------|
C#|--9--9--9----------------------|--7--7--7------------------12p11--|
G#|-------------------------------|----------------------------------|
C#|-------------------------------|----------------------------------|
D#|-------------------------------|------------------------------------|
A#|-------------------------------|------------------------------------|
F#|-----------7--7--9--9--11--11--|-----------7--7--9--9--6h7p6--------|
C#|--9--9--9----------------------|--7--7--7---------------------9--9--|
G#|-------------------------------|------------------------------------|
C#|-------------------------------|------------------------------------|


[Main Riff] Guitar 2
"Anyone Else But Me"


D#|--------|-------------------------------|--------|-------------------------------------------------|
A#|--------|-------------------------------|--------|-------------------------------------------------|
A#|--------|--4--4-------------------------|--------|--4--4--7--7--7--7--7--7--7--7-------------------|
C#|--5--5--|--4--4--0--0----7--7--7--4--4--|--5--5--|--4--4--7--7--7--7--7--7--7--7--7--7--7--7--7--7-|
G#|--5--5--|--2--2--0--0----7--7--7--4--4--|--5--5--|--2--2--5--5--5--5--5--5--5--5--7--7--7--7--7--7-|
C#|--5--5--|--------0--0----7--7--7--4--4--|--5--5--|--------------------------------7--7--7--7--7--7-|(x2)


[End-on] Guitar 2


D#|--------|
A#|--------|
F#|--------|
C#|--5--5--|
G#|--5--5--|
C#|--5--5--|

Chords List

Chord: The Grand Delusion - Neck Deep - tab, song lyric, sheet, guitar, ukulele
Maybe you like