Chord/Tab song: The Good Kind - The Wreckers

Chord,Tablature, lyric, sheet, guitar, ukulele song: The Good Kind - The Wreckers - ( Guitar 1: capo on seventh fret Guitars 2 and 3: capo on s...)

--
Guitar 1: capo on seventh fret
Guitars 2 and 3: capo on second fret

Intro:

Guitar 1:
Guitar[D] 3[Dsus]:[D][Dsus]


e -------------------------------
B --8---------7-5----------------
G ----------------7--(4-7-4-7-9)-
D -------------------------------
A -------------------------------
E -------------------------------


Verse 1:

Guitar 1:
'Do you [D]wanna run away to[Dsus]gether?'
I would [D]say it was your best lin[Dsus]e ever.
Too bad I [D]fell for it...[Dsus]
And I [D]walked along,[Dsus]
Waiting for [D]you to come along[Dsus].
Take my tortured [D]heart by the hand.[Dsus]
And write me [Em]off.

Guitar 2:
And I [Cadd9]walked alon[Emsus]g,[G]
Waitin[Emsus]g for [Cadd9]you to come alon[Emsus]g.[G]
Take my to[Emsus]rtured [Cadd9]heart by the ha[Emsus]nd.[G]
And write me [Am]off.

Chorus 1:

Guitar 1:
Do you know I [D]cry?[Dsus]
Do you know I [D]die?[Dsus]
Do you know I [D]cry?[Dsus]
And it's not the [D]good kind...[Dsus]

Guitar 2:
Do you know I [Cadd9]cry?[D]
Do you know I [Cadd9]die?[D]
Do you know I [Cadd9]cry?[D]
And it's not the [Cadd9]good kind...[G]

Solo 1:

Guitar 1: D Dsus D Dsus

Guitar 2: Emsus Cadd9 Emsus G Emsus Cadd9 Emsus G

Guitar 3:


e --------------------------------------------------------------------------
B --------------------------------------------------------------------------
G ------0-0-2/4--7-9-0------0-0-2/4^--2-0-----------------------------------
D --0-2-----------------0-2-------------------------------------------------
A --------------------------------------------------------------------------
E --------------------------------------------------------------------------

Verse 2:
Guitar 1:
You [D]forced me to become [Dsus]strong.
And [D]I just cried, being [Dsus]weak. [D][Dsus]
And you [D]think you know.[Dsus]
And I would [D]like to think so[Dsus],
But do you [D]know that when you go[Dsus],
I fall a[Em]part.

Guitar 2:
You [Cadd9]forced me to be[Emsus]come s[G]trong.
[Emsus]And I [Cadd9]just craved bein[Emsus]g weak. [G][Emsus][Cadd9][Emsus][G]
[Emsus]And you[Cadd9] think you [Emsus]know.[G]
And I [Emsus]would [Cadd9]like to think[Emsus] so,[G]
But d[Emsus]o you [Cadd9]know that when y[Emsus]ou go,[G]
I fall a[Am]part.

Guitar 3:


e --------------------------
B --------------------------
G --4/5-4-2-0---------------
D ------------2-------------
A --------------------------
E --------------------------


Chorus 2:

Guitar 1:
Do you know I [D]cry?[Dsus]
Do you know I [D]die?[Dsus]
Do you know I [D]cry?[Dsus]
And it's not the [D]good kind...[Dsus]
No, it's not the [D]good kind...[Dsus]

Guitar 2:
Do you know I [Cadd9]cry?[D]
Do you know I [Cadd9]die?[D]
Do you know I [Cadd9]cry?[D]
And it's not the [Cadd9]good kind...[G]
No, it's not the [Cadd9]good kind...[G]

Solo 2:

Guitar 1: D Dsus D Dsus

Guitar 2: Emsus Cadd9 Emsus G Emsus Cadd9 Emsus G

Guitar 3:


e ---------------------------------------------------------------------------
B ---------------------------------------------------------------------------
G ------0h2-2/4--7-9-0------0-0-2/4-2/4-2-0----------------------------------
D --0-2-----------------0-2-----------------2--------------------------------
A ---------------------------------------------------------------------------
E ---------------------------------------------------------------------------

Bridge:

Guitar 1:
[Am]I'm tired of hiding be[C]hind these lying eyes,
[Em]I'm tired of this smile that [G]even I don't recognize.

Guitar 2:
[Em]I'm tired of hiding be[D]hind these lying eyes,
[Am]I'm tired of this smile that [D]even I don't recognize

Chorus 3:

Guitar 1:
Do you know I [D]cry?[Dsus]
Do you know I [D]die?[Dsus]
Do you know I [D]cry?[Dsus]
And it's not the [D]good kind...[Dsus]

Guitar 2:
Do you know I[Cadd9] cry?[Emsus][G]
Do you [Emsus]know I[Cadd9] die?[Emsus][G]
Do you k[Emsus]now I [Cadd9]cry?[Emsus][G]
And it's not[Emsus] the g[Cadd9]ood kind... [Emsus][G]

Guitar 3:


e ---------------------------------------------------------------------
B --7/8-7-5-2/3--------------------------------------------------------
G --------------4^-2-0-------------------------------------------------
D ---------------------------------------------------------------------
A ---------------------------------------------------------------------
E ---------------------------------------------------------------------

Chorus 4:

Guitar 1:
Do you know I [D]cry?[Dsus]
Do you know I [D]die?[Dsus]
Do you know I [D]cry?[Dsus]
And it's not the [D]good kind...[Dsus]

Guitar 2:
Do you know I [Cadd9]cry?[D]
Do you know I [Cadd9]die?[D]
Do you know I [Cadd9]cry?[D]
And it's not the [Cadd9]good kind...[G]

Guitar 1:
No, you're not the[D] good kind.[Dsus]
Good [D]kind[Dsus]
No, you're not the [D]good kind.[Dsus]
Good [D]kind[Dsus]
No, you're not the [D]good kind.[Dsus]

Ending:
[Em]

e -----------0----------------------------------------------------------------
B -----------0----------------------------------------------------------------
G -/2-0------0----------------------------------------------------------------
D ------2-0--2----------------------------------------------------------------
A -----------2----------------------------------------------------------------
E -----------0----------------------------------------------------------------

Chords List

Chord: The Good Kind - The Wreckers - tab, song lyric, sheet, guitar, ukulele
Maybe you like