Chord/Tab song: The Bottom - Staind

Chord,Tablature, lyric, sheet, guitar, ukulele song: The Bottom - Staind - ( GTR II (All Palm Muted Except for Harmonics) D#|-------...)

a year ago89 Staind (2011) Staind
--
GTR II
(All Palm Muted Except for Harmonics)


D#|-----------------|----------------|----------------------------------|
A#|-----------------|----------------|----------------------------------|
F#|-----9--------9|-----9-------9|-----9--------9-----9------9--|
C#|-----------------|----------------|----------------------------------|
G#|-0-0----0-0--0---|-0-0---0-0--0---|-0-0----0-0--0----0-0---0-0--0----|
C#|-0-0----0-0--0---|-0-0---0-0--0---|-0-0----0-0--0----0-0---0-0--0----|
F#|-----------------|----------------|----------------------------------|


GTR I
[Verse 1 Repeat as nessisarry]


D#|------------------------------------|
A#|------------------------------------|
F#|------------------------------------|
C#|-7---7------7---------5--------5----|
G#|-------------7---------7-------5----|
C#|---0----0-0-------0-0------0-0-0----|
F#|------------------------------------|


GTR II
[Verse 1 (0:28-0:40)]
All Palm Muted Except For Harmonics


D#|-------------|-----------------|----------------|-------------------|
A#|-------------|-----------------|----------------|-------------------|
F#|----9-------|-------9--------|-------9-------|-------9----------|
C#|-------------|-----------------|----------------|-------------------|
G#|-0-0---0-0--0|---0-0-----0-0--0|---0-0----0-0--0|---0-0---0-0--0----|
C#|-0-0---0-0--0|---0-0-----0-0--0|---0-0----0-0--0|---0-0---0-0--0----|
F#|-------------|-----------------|----------------|-------------------|


[Pre Chorus (0:41-0:48)]
All Palm Muted Except For Harmonics


D#|-------------------------------|
A#|-------------------------------|
F#|-----9-------9----9---------|
C#|-------------------------------|
G#|-0-0---0-0--0---0-0---0-0--0---|
C#|-0-0---0-0--0---0-0---0-0--0---|
F#|-------------------------------|


[Chorus I (Repeat as needed)]
All Palm Muted Except For Harmonics


D#|-----------------------|---------------------------------|
A#|-----------------------|---------------------------------|
F#|---------------------5|---------------------------5----|
C#|-----------------------|---------------------------------|
G#|-0--0-0--0-0-0-0--5---|--8-8-8-8-8--5-5-5-5-5--5-------|
C#|-0--0-0--0-0-0-0-------|--8-8-8-8-8--5-5-5-5-5-----------|
F#|-----------------------|---------------------------------|


[Intro to verse 2 (1:16-1:23)]
All Palm Muted Except For Harmonics


D#|------------------------------------|
A#|------------------------------------|
F#|-----9-------9-----9--------9---|
C#|------------------------------------|
G#|-0-0---0-0--0----0-0----0-0--0------|
C#|-0-0---0-0--0----0-0----0-0--0------|
F#|------------------------------------|


[Verse 2]

GTR I Repeat as nessisarry


D#|--------------------------------|
A#|--------------------------------|
F#|--------------------------------|
C#|-7--7------7-------5-------5----|
G#|-------------7-------7-----5----|
C#|--0---0-0------0-0-----0-0-0----|
F#|--------------------------------|


GTR II
(1:30-1:51)
All Palm Muted Except For Harmonics


D#|-------------|-----------------|----------------|---------------|----------------|----------------------|
A#|-------------|-----------------|----------------|---------------|----------------|----------------------|
F#|-----9------|------9---------|-------9-------|-------9------|-------9-------|-------9-------------|
C#|-------------|-----------------|----------------|---------------|----------------|----------------------|
G#|-0-0---0-0--0|---0-0-----0-0--0|---0-0----0-0--0|---0-0---0-0--0|---0-0----0-0--0|---0-0----0-0--0------|
C#|-0-0---0-0--0|---0-0-----0-0--0|---0-0----0-0--0|---0-0---0-0--0|---0-0----0-0--0|---0-0----0-0--0------|
F#|-------------|-----------------|----------------|---------------|----------------|----------------------|


[Pre Chorus 2 (1:51-1:57)]
All Palm Muted Except For Harmonics


D#|-----------------|---------------|
A#|-----------------|---------------|
F#|-----9--------9|-----9--------|
C#|-----------------|---------------|
G#|-0-0----0-0--0---|-0-0----0-0--0-|
C#|-0-0----0-0--0---|-0-0----0-0--0-|
F#|-----------------|---------------|


[Chorus II (Repeat as needed)]
All Palm Muted Except For Harmonics


D#|-----------------------|---------------------------------|
A#|-----------------------|---------------------------------|
F#|---------------------5|---------------------------5----|
C#|-----------------------|---------------------------------|
G#|-0--0-0--0-0-0-0--5---|--8-8-8-8-8--5-5-5-5-5--5-------|
C#|-0--0-0--0-0-0-0-------|--8-8-8-8-8--5-5-5-5-5-----------|
F#|-----------------------|---------------------------------|


[Bridge] Repeat 8 Times


D#|--------------------------------|---------------------------------------------------------------|
A#|--------------------------------|---------------------------------------------------------------|
F#|--------------------------------|-------------------------------------------------------------5|
C#|-Play-Twice-With-Clean-Tone-----|Distortion-----------------------------------0---------0-------|
G#|--------------------------------|-------------------------------------0-0-0-0-0-0-0-0-0-0---5--|
C#|--------------------------------|-5h7-7-7--5h7-7-7--5h7-7-7-8-8-8-8---0-0-0-0-0-0-0-0-0-0-------|
F#|-5h7-7-7-5h7-7-7-5h7-7-7-8-8-8-8|-5h7-7-7--5h7-7-7--5h7-7-7-8-8-8-8-----------------------------|
D#|-----------------------------|
A#|-----------------------------|
F#|--------------------------5-|
C#|-----------------------------|
G#|-8-8-8-8-8--5-5-5-5-5--5----|
C#|-8-8-8-8-8--5-5-5-5-5--------|
F#|-----------------------------|


[Chorus III (Repeat as needed)]
All Palm Muted Except For Harmonics


D#|-----------------------|---------------------------------|
A#|-----------------------|---------------------------------|
F#|---------------------5|---------------------------5----|
C#|-----------------------|---------------------------------|
G#|-0--0-0--0-0-0-0--5---|--8-8-8-8-8--5-5-5-5-5--5-------|
C#|-0--0-0--0-0-0-0-------|--8-8-8-8-8--5-5-5-5-5-----------|
F#|-----------------------|---------------------------------|


[Outro]
GTR II (3:35-3:49)
All Palm Muted Except for Harmonics


D#|---------------------------------|-----------------------------------|
A#|---------------------------------|-----------------------------------|
F#|-----9--------9-----9-------9|-----9--------9-----9-------9--|
C#|---------------------------------|-----------------------------------|
G#|-0-0----0-0--0----0-0---0-0--0---|-0-0----0-0--0----0-0---0-0--0-----|
C#|-0-0----0-0--0----0-0---0-0--0---|-0-0----0-0--0----0-0---0-0--0-----|
F#|---------------------------------|-----------------------------------|


GTR II
(3:50-4:15)


D#|-----------------------------|------------------------------x----|
A#|-----------------------------|------------------------------3----|
F#|-----------------------------|------------------------------2----|
C#|-7---7------7-------5-------5|----7---7-----7------7--------0----|
G#|-------------7-------7------5|---------------7------5-------0----|
C#|---0---0-0------0-0-----0-0-0|------0---0-0-----0-0----0-0--0----|
F#|-----------------------------|------------------------------0----|

Chords List

Chord: The Bottom - Staind - tab, song lyric, sheet, guitar, ukulele
Maybe you like