Chord/Tab song: Sweetest Goodbye - Maroon 5

Chord,Tablature, lyric, sheet, guitar, ukulele song: Sweetest Goodbye - Maroon 5 - ( CHORDS: Am7 x02010 D xx0232 G 320033 Em7 022030 PATTERN...)

--
CHORDS:

Am7 x02010
D xx0232
G 320033
Em7 022030

PATTERNS:

Am7 (Hold the Am7 Chord while playing this riff)


E ------------------------------------------------------------------------|
B -----1-----------1-------------1---------------1-----------1------------|
G -----------0-----------0---------------0-------------0----------0-------|
D ----------------------------2------2-------2------2----2-----2----------|
A -0-----0-----0----0-----------------------------------------------------|
E ------------------------------------------------------------------------|


D (Hold the D Chord while playing this riff)


E ------------------------------------------------------------------------|
B ------3-------------3-------------3------------3------------------------|
G -------------2-------------2-------------2------------0-----------------|
D --0------0------0-----0------0------0-----0-----0-----------------------|
A ------------------------------------------------------------------------|
E ------------------------------------------------------------------------|


G (Hold the G Chord while playing this riff)


E -----------------------------------------------------------------------|
B -------3---------------3-----------------3------------3----------------|
G ---------------0---------------0----------------0-------------0--------|
D ------------------------------------0--------0-----0------0------------|
A ---------------------------2-------------------------------------------|
E ---3-------3------3----------------------------------------------------|


Em7 (Hold the Em7 Chord while playing this riff)


E----------------------------------------------------------------------------|
B-------3-----------------3-----------------3----------------3---------------|
G---------------0------------------0-----------------0-----------------0-----|
D---------------------------------------2-------2--------2--------2----------|
A------------------------------2---------------------------------------------|
E---0-------0-------0--------------------------------------------------------|


That's all that there is to it. Practice until u can play it with your eyes closed and
you can sing the melody with it.

[Am7] Where you are seems to be
[D] As far as an eternity
[G] Outstretched arms open hearts
[Em7] And if it never ends then when do we start
[Am7] I'll never leave you behin[D]d
Or treat you unki[G]nd
I know you underst[Em7]and

If you see the pattern here the rest of the song is simple. The chord order is basically
through out the whole song.
Try to make the high note stand out when playing the riffs.
Email questions, comments, corrections to mishka814@yahoo.com.

Chords List

Chord: Sweetest Goodbye - Maroon 5 - tab, song lyric, sheet, guitar, ukulele
Maybe you like