Chord/Tab song: Sunshine of Your Love - Cream

Chord,Tablature, lyric, sheet, guitar, ukulele song: Sunshine of Your Love - Cream - ( DISRAELI GEARS - CREAM transcribed by MaxxDaddy 2. SUNSH...)

--
DISRAELI GEARS - CREAM
transcribed by MaxxDaddy

2. SUNSHINE OF YOUR LOVE by Eric Clapton, Jack Bruce and Pete Brown

Intro:
(2x)


-------------------------------
-------------------------------
-------------------------------
-12-12-10-12-------------------
-------------12-11-10----8~----
----------------------10----10-


main riff:
[D]


------------------------------------
------------------------------------
-11--11--9---11-----------12-10~----
--------------------------12-----12-
-12--12--10--12--12-11-10-----------
-10--10--8---10---------------------


[G]


-----------------------------------
-12--12--10--12--------------------
-12--12--10--12--------------------
-12--12--10--12--12-11-10----8~----
-10--10--8---10-----------10----10-
-----------------------------------


[D]It's getting near dawn,
When lights close their tired eyes.
I'll soon be with you my love,
To give you my dawn surprise.
[G]I'll be with you darling soon,
I'll be with you when the stars start falling.

[A]I've been [C]waiting [G]so long
[A]To be w[C]here I'm [G]going
[A]In the [C]sunshine [G]of your l[A]ove.

[D]I'm with you my love,
The light's shining through on you.
Yes, I'm with you my love,
It's the morning and just we two.
[G]I'll stay with you darling now,
I'll stay with you till my seas are dried up.

Chorus

Solo:


-----------------------------------------------------------------
------------------------------12--------10-----------------------
-12(14)--12(14)~~~--12-12(14)----12(14)----12-12(14)~~--9(11)9p7-
-----------------------------------------------------------------
-----------------------------------------------------------------
-----------------------------------------------------------------
----------------------------------------------------------------------
-----9(11)-----------------9(11)9(11)9--------------------------------
-9-7-9(11)--7~~~-------7h9-9(11)9(11)9--7h9p7~~--10(13)-10(13)-10(13)-
-------------------7h9------------------------------------------------
----------------------------------------------------------------------
----------------------------------------------------------------------
--------------------------------------------------------------------
--------------------------------------------------------------------
-10(12)-10(12)~--10-----9(11)----7~-9(11)-----7h9-7-9(11)---7h9(11)-
--------------------12---------9----------7h9-------------9---------
--------------------------------------------------------------------
--------------------------------------------------------------------
----------------------------------------------------------------------
--------------------------------/13-----------------------------------
-10(12)-9(11)--7-9----7h9-7~~~--/14--\12-10-11----10~----------10h11~-
--------------------9--------------------------12-----12----12--------
---------------------------------------------------------12-----------
----------------------------------------------------------------------
-12-10------------------------------------------------------------
------------------------------13-------------------------13-------
-------10(12)----10-12(14)~~-----12(14)-12-10~-12-12(14)----12-10-
--------------12--------------------------------------------------
------------------------------------------------------------------
------------------------------------------------------------------
--------------10--------------------------------------------------------
--------10-10-----------------------------------------------------------
-12(14)----------12(14)12p10----10(12)----------------------10----10----
-----------------------------12--------12-------10----10----10h12-10h12-
------------------------------------------12-12-10h12-10h12-------------
------------------------------------------------------------------------
-------------------------------------------------------------------------
-10--12----------13----13-13h15-13--------------------13----15(17)-13-15-
-10--12p10--/14~----14-------------14\12-10(12)-12/14----14--------------
-------------------------------------------------------------------------
-------------------------------------------------------------------------
-------------------------------------------------------------------------
13---------------------------------------------------------------------------
13-15-13------------------------------13-13-13-13----------------------------
---------14\12-10(12)-------12-10-/14----14-14-14-14\12-10(12)---------------
----------------------12-12------------------------------------12p10---10h12-
---------------------------------------------------------------------12------
-----------------------------------------------------------------------------


Repeat Second Verse

Chorus

Chords List

Chord: Sunshine of Your Love - Cream - tab, song lyric, sheet, guitar, ukulele
Maybe you like