Chord/Tab song: Sugar - Maren Morris

Chord,Tablature, lyric, sheet, guitar, ukulele song: Sugar - Maren Morris - ( [Intro] e|---------------------------------|----------...)

2 months ago19 Hero (2016) Maren Morris
--
[Intro]



e|---------------------------------|---------------------------------|
B|---------------------------------|---------------------------------|
G|-----------------------1---------|---------------------------------|
D|-----------2-----4---------------|-------------2-2-1-1-------------|
A|-4-2-4-----------------------2---|---------------------4-4-2-2-----|
E|---------------------------------|---------------------------------|


[Verse 1]

Play the same riff as in intro 4 times through the verse.



e|---------------------------------|---------------------------------|
B|---------------------------------|---------------------------------|
G|-----------------------1---------|---------------------------------|
D|-----------2-----4---------------|-------------2-2-1-1-------------| x4
A|-4-2-4-----------------------2---|---------------------4-4-2-2-----|
E|---------------------------------|---------------------------------|


Boy I've been cooking up one hell of a crush
I've got you on my mind the minute I wake up
You make the morning glow, make the rooster crow, get my juices flowing
You know I got the spice but it ain't enough

[Chorus]

Baby would you be my [A]sugar, sugar?
M[E]ake my heart race, [B]even on a good day
[C#m]You make the world taste b[A]etter, better
G[E]ood on anyth[B]ing, [C#m]want you on everything
J[A]ust a little bit [E]is all it takes
L[B]ike a Coca-Cola on a Ch[C#m]ristmas Day
Y[A]ou're what I crave babe, wh[E]at can I say?
W[B]ould you, would you
Would you be my s[A]ugar, sugar?[E][B]

[Verse 2]



e|---------------------------------|---------------------------------|
B|---------------------------------|---------------------------------|
G|-----------------------1---------|---------------------------------|
D|-----------2-----4---------------|-------------2-2-1-1-------------| x4
A|-4-2-4-----------------------2---|---------------------4-4-2-2-----|
E|---------------------------------|---------------------------------|


Tried the fake sht but it ain't the same
A girl just knows when it's the real thing
Yeah I'm a cup of tea with a touch of cream but something's missing
So I'm gonna put this nice and sweet

[Chorus]

Baby would you be my s[A]ugar, sugar?
M[E]ake my heart race, [B]even on a good day
[C#m]You make the world taste b[A]etter, better
G[E]ood on anyth[B]ing, [C#m]want you on everything
J[A]ust a little bit [E]is all it takes
L[B]ike a Coca-Cola on a C[C#m]hristmas Day
Y[A]ou're what I crave babe, wh[E]at can I say?
W[B]ould you, would you
Would you be my s[A]ugar, sugar?[E][B]
Would you be my s[A]ugar, sugar?[E][B]

[Bridge]

S[A]ugar sugar, you make my heart race
Even [E]on a good day you make the world taste
B[A]etter better, good on [E]anything
Just a little bit is [B]all that it takes

[Chorus]

S[A]ugar, sugar
M[E]ake my heart race, [B]even on a good day
[C#m]You make the world taste b[A]etter, better
G[E]ood on anyth[B]ing, [C#m]want you on everything
J[A]ust a little bit [E]is all it takes
L[B]ike a Coca-Cola on a Ch[C#m]ristmas Day
Y[A]ou're what I crave babe, wh[E]at can I say?
W[B]ould you, would you
Would you be my s[A]ugar, sugar?[E][B]
Would you be my s[A]ugar, sugar?[E][B]
Yeah

[Outro]



e|---------------------------------|
B|---------------------------------|
G|-----------------------1---------|
D|-----------2-----4---------------|
A|-4-2-4-----------------------2---|
E|---------------------------------|

Chords List

Chord: Sugar - Maren Morris - tab, song lyric, sheet, guitar, ukulele
Maybe you like