Chord/Tab song: Strong Man - 16 Horsepower

Chord,Tablature, lyric, sheet, guitar, ukulele song: Strong Man - 16 Horsepower - ( 16 Horsepower "Strong Man" From the album "Sackcloth and ...)

--
16 Horsepower "Strong Man"
From the album "Sackcloth and Ashes" (c) 1995, A&M Records
Lyrics by David Eugene Edwards, Music by 16 Horsepower
Transcribed by Josh Wysor

Chords Bm Dbm Em Gbm Ebm
e 2 4 7 9 6
b 3 5 8 10 7
g 4 6 9 11 8
d 4 6 9 11 8
[a]e[2][4][7][9][6]

[Bm]

--------------2-------------------------2-------------------|
-9\7--7---3-----------------------3-----3-----------3-------|
-9\7--7---4-------------------4-----4---4-------4-----4-----|
----------4-------4---4---4-----------------4-------------4-|
------------------2---2-----------------------------------2-|
------------------------------------------------------------|


[Dbm]

---------2-------4------------------------------------------|
-------------3---5--------5-----------------5---------------|
-----4-----------6----------6-----------6-------6-----------|
-4---------------6---6----------6---6---------------6---6---|
--------------------------------4---4---------------4---4---|
------------------------------------------------------------|


Bm/Dbm


------------------------------------------------------------|
-----5-------3/5--------------------------------------------|
-----6---6---4/6--------------------------------------------|
-6-----------4/6--------------------------------------------|
-------------2/4--------------------------------------------|
------------------------------------------------------------|


When a chord slide takes place, I've tabbed it with either
a "/" for a slide up, or "\" for a slide down.

Verse:
[Bm/Dbm] The strong man he will [Em] kneel down[Dbm]

[Bm/Dbm] Whalst angels strip him of[Gbm] cloak and cro[Dbm]wn

[Bm/Dbm] Through bitter lips come[Em] vile breath

[Bm/Dbm] He is the last one[Gbm] to conf[Dbm]ess[Bm][Dbm]

[Bm/Dbm] There will be no [Em]pity for hi[Dbm]m

[Bm/Dbm] We must kill him where he [Gbm]stands[Dbm]

[Bm/Dbm] No there will be no [Em]mercy for[Dbm] him

[Bm/Dbm] Nor for any[Gbm] of his [Dbm]klan[Bm][Em]

[Bm] [Em] [Bm] [Em] [Bm][Em]

Ebm Bm/Dbm Em\Ebm Bm/Dbm

Verse:

[Bm/Dbm] Let there be no[Em] hesitation
( Tab from: http://www.guitartabs.cc/tabs/0-9/16_horsepower/strong_man_tab.html )
[Bm/Dbm] Get a rope and make it [Gbm]quick[Dbm]

[Bm/Dbm] Each last breath come[Em] from his mou[Dbm]th

[Bm/Dbm] I will beat it out[Gbm] with a [Dbm]stick[B][Dbm]

[Bm/Dbm] Pray boy you have no [Em] reservations[Dbm]

[Bm/Dbm] The word will be car[Gbm]ried out[Dbm]

[Bm/Dbm] He is the one who [Em] brought down the S[Dbm]on

[Bm/Dbm] Let there be no [Gbm] goddamn d[Dbm]oubt[Bm][Em]

[Bm] [Em] [Bm] [Em] [Bm][Bm/Dbm][Em][Ebm]
Bm/Dbm Em\Ebm Bm/Dbm

Outro Jam:

[Bm/Dbm] There is power, [Em] wonder workin[Dbm]g power

[Bm/Dbm] In the blood [Gbm] of the Lam[Dbm]b

[Bm/Dbm] There is power[Em], wonder working p[Dbm]ower

[Bm/Dbm] In the precious b[Gbm]lood of the La[Dbm]mb

[Bm] th[Dbm]e Lamb

2nd:
[Bm/Dbm] There is power[Em], wonder workin[Dbm]g power

[Bm/Dbm] In the blood [Gbm] of the Lam[Dbm]b

[Bm/Dbm] There is power[Em], wonder working p[Dbm]ower

[Bm/Dbm] In the precious [Gbm]blood of the La[Dbm]mb[Bm][Dbm]

[Bm] He's seated at the right h[Dbm]and

3rd:
[Bm/Dbm] There is power, [Em] wonder workin[Dbm]g power

[Bm/Dbm] In the blood [Gbm] of the Lam[Dbm]b

[Bm/Dbm] There is power[Em], wonder working p[Dbm]ower

[Bm/Dbm] In the precious [Gbm]blood of His hand[Dbm],

[Bm] His right [Dbm]hand[Bm][Dbm]

(Bm/Dbm Em Dbm)fading out

Well, that's the whole song. If I get some more time I'll
try to work out a straight tab for the verse. Feel free to email me
at gambit_thirteen@yahoo.com
I'm curious to know who's getting this tab.

Chords List

Chord: Strong Man - 16 Horsepower - tab, song lyric, sheet, guitar, ukulele
Maybe you like