Chord/Tab song: Staring at the Stars - Passenger

Chord,Tablature, lyric, sheet, guitar, ukulele song: Staring at the Stars - Passenger - ( Passenger, Staring At The Stars - Acoustic Version Capo 4...)

--
Passenger, Staring At The Stars - Acoustic Version
Capo 4 (or 5 if you're playing along with the more upbeat version)

(/) Slide Up (\) Slide Down (h) Hammer On (p) Pull Off (b) Bend (r) Release (v) Vibrato

The basis picking pattern is (though in the Em, F & G chords, you use the E as the bass string):



E|--------------------|
B|-----x-----------x--|
G|-----------x--------|
D|-----x--------x-----|
A|--x-----x-----------|
E|--------------------|
--- INTRODUCTION ---


[C] [Em]

E|--------------------|--------------------|--------------------|--------------------|
B|-----1-----------1--|-----1-----------1--|-----0-----------0--|-----0-----------0--|
G|-----------0--------|-----------0--------|-----------0--------|-----------0--------| REPEAT
D|-----0h2------2-----|-----0h2------2-----|-----2--------2-----|-----2--------2-----| X 4
A|--3-----3-----------|--3-----3-----------|--------------------|--------------------|
E|--------------------|--------------------|--0-----0-----------|--0-----0-----------|
--- VERSE 1 ---


[C] [Em]

E|--------------------|--------------------|--------------------|--------------------|
B|-----1-----------1--|-----1-----------1--|-----0-----------0--|-----0-----------0--|
G|-----------0--------|-----------0--------|-----------0--------|-----------0--------| REPEAT
D|-----0h2------2-----|-----0h2------2-----|-----2--------2-----|-----2--------2-----| X 4
A|--3-----3-----------|--3-----3-----------|--------------------|--------------------|
E|--------------------|--------------------|--0-----0-----------|--0-----0-----------|
--- BRIDGE ---


[F] [C]

E|--------------------|--------------------|--------------------|--------------------|
B|-----1-----------1--|-----1-----------1--|-----1-----------1--|-----1-----------1--|
G|-----------2--------|-----------2--------|-----------0--------|-----------0--------|
D|-----3--------3-----|-----3--------3-----|-----0h2------2-----|-----0h2------2-----|
A|--------------------|--------------------|--3-----3-----------|--3-----3-----------|
E|--1-----1-----------|--1-----1-----------|--------------------|--------------------|


[G] [Am]

E|--------------------|--------------------|--------------------|--------------------|
B|-----0-----------0--|-----0-----------0--|-----1-----------1--|-----1-----------1--|
G|-----------0--------|-----------0--------|-----------2--------|-----------2--------|
D|-----0--------0-----|-----0--------0-----|-----2--------2-----|-----2--------2-----|
A|--------------------|--------------------|--0-----0-----------|--0-----0-----------|
E|--3-----3-----------|--3-----3-----------|--------------------|--------------------|


[F] [C]

E|--------------------|--------------------|--------------------|--------------------|
B|-----1-----------1--|-----1-----------1--|-----1-----------1--|-----1-----------1--|
G|-----------2--------|-----------2--------|-----------0--------|-----------0--------|
D|-----3--------3-----|-----3--------3-----|-----0h2------2-----|-----0h2------2-----|
A|--------------------|--------------------|--3-----3-----------|--3-----3-----------|
E|--1-----1-----------|--1-----1-----------|--------------------|--------------------|


[G] [G]

E|--------------------|--------------------|--------------------|--------------------|
B|-----0-----------0--|-----0-----------0--|-----0-----------0--|-----0-----------0--|
G|-----------0--------|-----------0--------|-----------0--------|-----------0--------|
D|-----0--------0-----|-----0--------0-----|-----0--------0-----|-----0--------0-----|
A|--------------------|--------------------|--------------------|--------------------|
E|--3-----3-----------|--3-----3-----------|--3-----3-----------|--3-----3-----------|
--- FILL ---


[C] [Em]

E|--------------------|--------------------|--------------------|--------------------|
B|-----1-----------1--|-----1-----------1--|-----0-----------0--|-----0-----------0--|
G|-----------0--------|-----------0--------|-----------0--------|-----------0--------| REPEAT
D|-----0h2------2-----|-----0h2------2-----|-----2--------2-----|-----2--------2-----| X 2
A|--3-----3-----------|--3-----3-----------|--------------------|--------------------|
E|--------------------|--------------------|--0-----0-----------|--0-----0-----------|
--- VERSE 1 ---


[C] [Em]

E|--------------------|--------------------|--------------------|--------------------|
B|-----1-----------1--|-----1-----------1--|-----0-----------0--|-----0-----------0--|
G|-----------0--------|-----------0--------|-----------0--------|-----------0--------| REPEAT
D|-----0h2------2-----|-----0h2------2-----|-----2--------2-----|-----2--------2-----| X 4
A|--3-----3-----------|--3-----3-----------|--------------------|--------------------|
E|--------------------|--------------------|--0-----0-----------|--0-----0-----------|
--- BRIDGE ---


[F] [C]

E|--------------------|--------------------|--------------------|--------------------|
B|-----1-----------1--|-----1-----------1--|-----1-----------1--|-----1-----------1--|
G|-----------2--------|-----------2--------|-----------0--------|-----------0--------|
D|-----3--------3-----|-----3--------3-----|-----0h2------2-----|-----0h2------2-----|
A|--------------------|--------------------|--3-----3-----------|--3-----3-----------|
E|--1-----1-----------|--1-----1-----------|--------------------|--------------------|


[G] [Am]

E|--------------------|--------------------|--------------------|--------------------|
B|-----0-----------0--|-----0-----------0--|-----1-----------1--|-----1-----------1--|
G|-----------0--------|-----------0--------|-----------2--------|-----------2--------|
D|-----0--------0-----|-----0--------0-----|-----2--------2-----|-----2--------2-----|
A|--------------------|--------------------|--0-----0-----------|--0-----0-----------|
E|--3-----3-----------|--3-----3-----------|--------------------|--------------------|


[F] [C]

E|--------------------|--------------------|--------------------|--------------------|
B|-----1-----------1--|-----1-----------1--|-----1-----------1--|-----1-----------1--|
G|-----------2--------|-----------2--------|-----------0--------|-----------0--------|
D|-----3--------3-----|-----3--------3-----|-----0h2------2-----|-----0h2------2-----|
A|--------------------|--------------------|--3-----3-----------|--3-----3-----------|
E|--1-----1-----------|--1-----1-----------|--------------------|--------------------|


[G] [G]

E|--------------------|--------------------|--------------------|--------------------|
B|-----0-----------0--|-----0-----------0--|-----0-----------0--|-----0-----------0--|
G|-----------0--------|-----------0--------|-----------0--------|-----------0--------|
D|-----0--------0-----|-----0--------0-----|-----0--------0-----|-----0--------0-----|
A|--------------------|--------------------|--------------------|--------------------|
E|--3-----3-----------|--3-----3-----------|--3-----3-----------|--3-----3-----------|
--- CHORUS ---


[F] [C]

E|--------------------|--------------------|--------------------|--------------------|
B|-----1-----------1--|-----1-----------1--|-----1-----------1--|-----1-----------1--|
G|-----------2--------|-----------2--------|-----------0--------|-----------0--------|
D|-----3--------3-----|-----3--------3-----|-----0h2------2-----|-----0h2------2-----|
A|--------------------|--------------------|--3-----3-----------|--3-----3-----------|
E|--1-----1-----------|--1-----1-----------|--------------------|--------------------|


[G] [Am]

E|--------------------|--------------------|--------------------|--------------------|
B|-----0-----------0--|-----0-----------0--|-----1-----------1--|-----1-----------1--|
G|-----------0--------|-----------0--------|-----------2--------|-----------2--------|
D|-----0--------0-----|-----0--------0-----|-----2--------2-----|-----2--------2-----|
A|--------------------|--------------------|--0-----0-----------|--0-----0-----------|
E|--3-----3-----------|--3-----3-----------|--------------------|--------------------|

( Tab from: http://www.guitartabs.cc/tabs/p/passenger/staring_at_the_stars_tab.html )
[F] [C]

E|--------------------|--------------------|--------------------|--------------------|
B|-----1-----------1--|-----1-----------1--|-----1-----------1--|-----1-----------1--|
G|-----------2--------|-----------2--------|-----------0--------|-----------0--------|
D|-----3--------3-----|-----3--------3-----|-----0h2------2-----|-----0h2------2-----|
A|--------------------|--------------------|--3-----3-----------|--3-----3-----------|
E|--1-----1-----------|--1-----1-----------|--------------------|--------------------|


[G] [Am]

E|--------------------|--------------------|--------------------|--------------------|
B|-----0-----------0--|-----0-----------0--|-----1-----------1--|-----1-----------1--|
G|-----------0--------|-----------0--------|-----------2--------|-----------2--------|
D|-----0--------0-----|-----0--------0-----|-----2--------2-----|-----2--------2-----|
A|--------------------|--------------------|--0-----0-----------|--0-----0-----------|
E|--3-----3-----------|--3-----3-----------|--------------------|--------------------|


[F] [C]

E|--------------------|--------------------|--------------------|--------------------|
B|-----1-----------1--|-----1-----------1--|-----1-----------1--|-----1-----------1--|
G|-----------2--------|-----------2--------|-----------0--------|-----------0--------|
D|-----3--------3-----|-----3--------3-----|-----0h2------2-----|-----0h2------2-----|
A|--------------------|--------------------|--3-----3-----------|--3-----3-----------|
E|--1-----1-----------|--1-----1-----------|--------------------|--------------------|


[G] [G]

E|--------------------|--------------------|--------------------|--------------------|
B|-----0-----------0--|-----0-----------0--|-----0-----------0--|-----0-----------0--|
G|-----------0--------|-----------0--------|-----------0--------|-----------0--------|
D|-----0--------0-----|-----0--------0-----|-----0--------0-----|-----0--------0-----|
A|--------------------|--------------------|--------------------|--------------------|
E|--3-----3-----------|--3-----3-----------|--3-----3-----------|--3-----3-----------|
--- FILL ---


[C] [Em]

E|--------------------|--------------------|--------------------|--------------------|
B|-----1-----------1--|-----1-----------1--|-----0-----------0--|-----0-----------0--|
G|-----------0--------|-----------0--------|-----------0--------|-----------0--------| REPEAT
D|-----0h2------2-----|-----0h2------2-----|-----2--------2-----|-----2--------2-----| X 2
A|--3-----3-----------|--3-----3-----------|--------------------|--------------------|
E|--------------------|--------------------|--0-----0-----------|--0-----0-----------|


[F] [C]

E|--------------------|--------------------|--------------------|--------------------|
B|-----1-----------1--|-----1-----------1--|-----1-----------1--|-----1-----------1--|
G|-----------2--------|-----------2--------|-----------0--------|-----------0--------|
D|-----3--------3-----|-----3--------3-----|-----0h2------2-----|-----0h2------2-----|
A|--------------------|--------------------|--3-----3-----------|--3-----3-----------|
E|--1-----1-----------|--1-----1-----------|--------------------|--------------------|


[G] [C/G] [G]

E|--------------------|--------------------|--------------------|--------------------|
B|-----0-----------0--|-----1-----------1--|-----0-----------0--|-----0-----------0--|
G|-----------0--------|-----------0--------|-----------0--------|-----------0--------|
D|-----0--------0-----|-----2--------2-----|-----0--------0-----|-----0--------0-----|
A|--------------------|--------------------|--------------------|--------------------|
E|--3-----3-----------|--3-----3-----------|--3-----3-----------|--3-----3-----------|
--- CHORUS ---


[F] [C]

E|--------------------|--------------------|--------------------|--------------------|
B|-----1-----------1--|-----1-----------1--|-----1-----------1--|-----1-----------1--|
G|-----------2--------|-----------2--------|-----------0--------|-----------0--------|
D|-----3--------3-----|-----3--------3-----|-----0h2------2-----|-----0h2------2-----|
A|--------------------|--------------------|--3-----3-----------|--3-----3-----------|
E|--1-----1-----------|--1-----1-----------|--------------------|--------------------|


[G] [Am]

E|--------------------|--------------------|--------------------|--------------------|
B|-----0-----------0--|-----0-----------0--|-----1-----------1--|-----1-----------1--|
G|-----------0--------|-----------0--------|-----------2--------|-----------2--------|
D|-----0--------0-----|-----0--------0-----|-----2--------2-----|-----2--------2-----|
A|--------------------|--------------------|--0-----0-----------|--0-----0-----------|
E|--3-----3-----------|--3-----3-----------|--------------------|--------------------|


[F] [C]

E|--------------------|--------------------|--------------------|--------------------|
B|-----1-----------1--|-----1-----------1--|-----1-----------1--|-----1-----------1--|
G|-----------2--------|-----------2--------|-----------0--------|-----------0--------|
D|-----3--------3-----|-----3--------3-----|-----0h2------2-----|-----0h2------2-----|
A|--------------------|--------------------|--3-----3-----------|--3-----3-----------|
E|--1-----1-----------|--1-----1-----------|--------------------|--------------------|


[G] [Am]

E|--------------------|--------------------|--------------------|--------------------|
B|-----0-----------0--|-----0-----------0--|-----1-----------1--|-----1-----------1--|
G|-----------0--------|-----------0--------|-----------2--------|-----------2--------|
D|-----0--------0-----|-----0--------0-----|-----2--------2-----|-----2--------2-----|
A|--------------------|--------------------|--0-----0-----------|--0-----0-----------|
E|--3-----3-----------|--3-----3-----------|--------------------|--------------------|


[F] [C]

E|--------------------|--------------------|--------------------|--------------------|
B|-----1-----------1--|-----1-----------1--|-----1-----------1--|-----1-----------1--|
G|-----------2--------|-----------2--------|-----------0--------|-----------0--------|
D|-----3--------3-----|-----3--------3-----|-----0h2------2-----|-----0h2------2-----|
A|--------------------|--------------------|--3-----3-----------|--3-----3-----------|
E|--1-----1-----------|--1-----1-----------|--------------------|--------------------|


[G] [G]

E|--------------------|--------------------|--------------------|--------------------|
B|-----0-----------0--|-----0-----------0--|-----0-----------0--|-----0-----------0--|
G|-----------0--------|-----------0--------|-----------0--------|-----------0--------|
D|-----0--------0-----|-----0--------0-----|-----0--------0-----|-----0--------0-----|
A|--------------------|--------------------|--------------------|--------------------|
E|--3-----3-----------|--3-----3-----------|--3-----3-----------|--3-----3-----------|
--- OUTRO ---


[C] [Em]

E|--------------------|--------------------|--------------------|--------------------|
B|-----1-----------1--|-----1-----------1--|-----0-----------0--|-----0-----------0--|
G|-----------0--------|-----------0--------|-----------0--------|-----------0--------|
D|-----0h2------2-----|-----0h2------2-----|-----2--------2-----|-----2--------2-----|
A|--3-----3-----------|--3-----3-----------|--------------------|--------------------|
E|--------------------|--------------------|--0-----0-----------|--0-----0-----------|


[C] [Em]

E|--------------------|--------------------|--------------------|--------------------|
B|-----1-----------1--|-----1-----------1--|-----0-----------0--|-----0-----------0--|
G|-----------0--------|-----------0--------|-----------0--------|-----------0--------|
D|-----0h2------2-----|-----0h2------2-----|-----2--------2-----|-----2--------2-----|
A|--3-----3-----------|--3-----3-----------|--------------------|--------------------|
E|--------------------|--------------------|--0-----0-----------|--0-----0-----------|


[C]

E|--------------------|
B|--------------------|
G|--------------------|
D|-------------0h2----|
A|-------------3------|
E|--------------------|

Chords List

Chord: Staring at the Stars - Passenger - tab, song lyric, sheet, guitar, ukulele
Maybe you like