Chord/Tab song: Sister Moon - Gotthard

Chord,Tablature, lyric, sheet, guitar, ukulele song: Sister Moon - Gotthard - ( Drop D Tuning Beginning with Drumset 2x Riff SISTER MO...)

2 years ago233 G. (1996) Gotthard
--
Drop D Tuning

Beginning with Drumset

2x Riff

SISTER MOON , COME LEAD ME DOWN

TO REST MY WEARY HEAD
I W[G]ALKED A MILLION MILES ALONG

THE ROAD OF NO REGRET

1xRiff

IVE BEEN A FOOL , MESSED AROUND...

A LOCK WITHOUT A KEY
IM W[A]AITING FOR THE MORNING SUN

TO MAKE IT SHINE ON ME

Ref.
[F]SO LO[G]NG , L[D]ONELY DAYS
[F]TAKE ME [G]BACK WHERE I [A]BELONG
[F]ALL G[G]ONE , ITS [D]ALL BEHIND
[F]HOPE YOU DONT MIND ,[G] HOPE YOU DONT MIND
[D]HOPE YOU DONT MIND

1xRiff

TOO MANY TIMES I LOST THE GRIP

WAS WORN OUT ON THE FLOOR

FALLEN ANGEL , DONT LOOSE YOUR WINGS

CUZ YOULL NEVER FLY NO MORE

Ref. - A

Solo

2x Riff

Ending with Drumset

Solo:



e-12-10-8-6-4-2-3-2-------3--------------|
H-------------------3-2-3---5-3----------|
G-------------------------------5-3------|
D-----------------------------------5-3--|
A----------------------------------------|
E----------------------------------------|
e--------------5---------------------------|
H------3h5-3h5---5-3-----------------------|
G-----------------------------------7------|
D---3-5---------------------3-5-7-5---7-5--|
A-5-------------------3-5-3----------------|
E------------------------------------------|
e-----------------------------------12-|
H--------------------10----------------|
G-------9--9-11-9-11----9--9-11-9-11---|
D-7-9-7--------------------------------|
A--------------------------------------|
E--------------------------------------|


Riff:



e----------------------------------------|
H-----------------3--------------------3-|
G-----------------2--------------------2-|
D-----3-0---------0--3h5-3-------------0-|
A-0-3-----3-0--------------5-3-0-0-------|
E-------------3-0------------------3-0---|
e---------------------------------------|
H------------------3--------------------|
G------------------2--------------------|
D------3-0---------0--3h5-3-------1h3---|
A--0-3-----3-0--------------5-3-0-----5-|
E0-------------3-0----------------------|

Chords List

Chord: Sister Moon - Gotthard - tab, song lyric, sheet, guitar, ukulele
Maybe you like