Chord/Tab song: She Was Great - Beatsteaks

Chord,Tablature, lyric, sheet, guitar, ukulele song: She Was Great - Beatsteaks - ( -------------------------------------------------------...)

--
----------------------------------------------------------------------------

Beatsteaks-She was great


----------------------------------------------------------------------------


tuning: standard
Tapped by: Henrik Mller
mails to: schildkroete29@web.de

[Bass]

G [ -----------------------------------------] repeat this part
D [ -----------------------------------------] 2 times
A [ -----------------------------------------]
E [ ------7--2------------10--12-----10--12--]


bass:


G [ ---------------------------------------------------------------]
D [ ---------------------------------------------------------------] repeat
A [ ----------4---------1-----------1----------0----3--0-----------]
E [ ------6---------4-----------2----------3-----------------------]


[ Tab from: http://www.guitartabs.cc/tabs/b/beatsteaks/she_was_great_tab.html ]
later with
guitar:


E [--------------------------------------------------------]
H [--------------------------------------------------------]
G [-10-10-10-10-10-10-10-10-10-10-10-10-10-10-10-10-10-10--] find out how often
D [--------------------------------------------------------] (very fast)
A [--------------------------------------------------------]
E [ -------------------------------------------------------]


then:
bass and guitar


G [ ---------------------------------------------------------------]
D [ ---------------------------------------------------------------]
A [ ----------4---------1-----------1-----------0-----3--0---------] repeat
E [ ------6---------4-----------2----------3-----------------------]


guitar: ( clean )


E [ -------------------------------------------------------------------]
H [ -------------------------------------------------------------------]
G [ -------------9---/11-----------/11---------------------------/11---]
D [ -------------9---/11-----------/11---------------------------/11---]
A [ ----7/8---9--7---/9----7/8-----/9---------------------7/8----/9---]
E [ -------------------------------------------------------------------]


then the bass again.and so on!

PLEASE RATE AND LEAVE COMMENTS!



--------->!!!the rest will follow!!!

Chords List

Chord: She Was Great - Beatsteaks - tab, song lyric, sheet, guitar, ukulele
Maybe you like