Chord/Tab song: She Ain't Pretty - The Northern Pikes

Chord,Tablature, lyric, sheet, guitar, ukulele song: She Ain't Pretty - The Northern Pikes - ( She Ain`t Pretty ( She Just Looks That Way ) - The Nort...)

--

-----------------------------------------------------------------------------

She Ain`t Pretty ( She Just Looks That Way ) - The Northern Pikes


-----------------------------------------------------------------------------

Tabbed by:johnnybebad
Email:j_bebad@hotmail.com

Tuning: standard

Intro
[A] [D] [A] [E] [A]

E||----------------------|-----------------|-----------------------|
B||----------------------|----------3------|-2--3/5-5-5-5----------|
G||--2-2-----------------|--2----2--2------|-2--4/6-6-6-6--------2-|
D||--2-2---4p---5p---4p--|--2----2--0------|---------------2-2---2-|
A||--0-0---0----0----0---|--0----0---------|---------------2-2---0-|
E||----------------------|-----------------|---------------0-0-----|

fill A


||-------------------|
||-------------------|
||-------------2-----|
||-------------2-----|
||-------------0-----|
||--3p---3p----------|

[A]I had two jobs I had dishwater [D]hands
A E A + Fill
And on the weekend in a rock & roll band
[A]One Friday night in my hometown [D]bar
[A]In walked a girl who looked like a [E]movie s[A]tar
[D]She stared at me and it was [E]turning me[A] on
[D]She said she worked in a [F#]beauty [B]salon
[A]I heard a voice inside me[D] say
[A]She ain't pretty she just l[(E)]ooks that way
- intro once
[A]We made a date to go for a [D]drink
A E A + fill
I wore my jeans and she wore a mink
[A]There was this misconception all over [D]town
That [A]she ate lonely guy [E]heart by the [A]pound
She said [D]"Take me home there [E]won't be no [A]fuss"
[D]I said "Sure you got some [F#]change for the [B]bus"
[A]Watching her leave, I heard the bartender [D]say
[A]"She ain't pretty she just [E]looks tha[A]t way"
[D] [E] [A] [D] [F#] [B] [A] [D] [A] [E] [A]
fill
I[A] called her up her father was home
Said "She's busy she can't come to the phone"
I held my breath, decided to wait
A guy like me doesn't g[E]et many [A]dates
[D]I fell in love with a [E]model from [A]hell
[D]It took some time for my [F#]hormones to [B]tell
[A]That chasing her has been a grave [D]mistake
[A]She ain't pretty she just [E]looks that [A]way
[D]Her ego wrote cheques i[E]ncredibly [A]fast
[D]But her personality [F#]didn't h[B]ave the cash
[A]I laughed out loud to my total d[D]ismay
[A]She ain't pretty she just lo[E]oks that w[A]ay
[A]She ain't pretty[G]
[A]She ain't pretty[G]
[F#] [D] [C] [G]
[A]She ain't pretty she just looks that way[A][A][A]

| / slide up
| \ slide down
| h hammer-on
| p pull-off
| ~ vibrato
| + harmonic
| x Mute note

Chords List

Chord: She Ain't Pretty - The Northern Pikes - tab, song lyric, sheet, guitar, ukulele
Maybe you like