Chord/Tab song: Selfdestructo Bust - Turboneger

Chord,Tablature, lyric, sheet, guitar, ukulele song: Selfdestructo Bust - Turboneger - ( Band Name: Turbonegro Album Apocolypse Dudes Song: Selfde...)

--
Band Name: Turbonegro
Album Apocolypse Dudes
Song: Selfdestructo Bust
Tabbed: By Decimus

Ok well this is all of the song that I could figure out.
Bit considaring there is no tab for this song besides mine just bear with mwa.
So here it is. Oh yeah I FRIKEN LOVE THIS Song.

Intro )





[D] [C] [A#] [C] [D] [F] [C]

e||-------------------------------------------------------||---------|
B||-------------------------------------------------------||---------|
G||--7-7-7-7-------------------------------------7-7-7-7--||--10-----|
D||--7-7-7-7--10-10-10-10--8-8-8-8--10-10-10-10--7-7-7-7--||--10-10--|
A||--5-5-5-5--10-10-10-10--8-8-8-8--10-10-10-10--5-5-5-5--||---8-10--|
E||--5-5-5-5---8--8--8--8--6-6-6-6---8--8--8--8--5-5-5-5--||---8--8--|



( Verse )

[D] [G] [A#] [F] [C]

e||----------------------------------------|
B||----------------------------------------|
G||--7-7-7-7-7-7-7-7----------------10-----|
D||--7-7-7-7-7-7-7-7--5-5-5-5--8-8--10-10--|
A||--5-5-5-5-5-5-5-5--5-5-5-5--8-8---8-10--|
E||--5-5-5-5-5-5-5-5--3-3-3-3--6-6---8--8--|



( Chorus )

[D] [C] [A#] [C] [D]

e||-------------------------------------------------------|
B||-------------------------------------------------------|
G||--7-7-7-7-------------------------------------7-7-7-7--|
D||--7-7-7-7--10-10-10-10--8-8-8-8--10-10-10-10--7-7-7-7--|
A||--5-5-5-5--10-10-10-10--8-8-8-8--10-10-10-10--5-5-5-5--|
E||--5-5-5-5---8--8--8--8--6-6-6-6---8--8--8--8--5-5-5-5--|


( Chorus cont. )

[A#] [C] [D] [F] [C]

e||----------------------------------------|
B||----------------------------------------|
G||------------------------7-7-7-7--10-----|
D||--8-8-8-8--10-10-10-10--7-7-7-7--10-10--|
A||--8-8-8-8--10-10-10-10--5-5-5-5---8-10--|
E||--6-6-6-6---8--8--8--8--5-5-5-5---8--8--|



( Bridge/ Rhythm )

[A] [A#] [C] [D]

e||----------------------------------------------|
B||----------------------------------------------|
G||----------------------------------------------|
D||--7-7-7-7--8-8-8-8--10-10-10-10--12-12-12-12--|
A||--7-7-7-7--8-8-8-8--10-10-10-10--12-12-12-12--|
E||--5-5-5-5--6-6-6-6---8--8--8--8--10-10-10-10--|


Im still working on the solo but I have a hint for the rest of the song,
u should try to Bar the low E string for all the power chords to acheive that real death/punk sound!!!

Chords List

Chord: Selfdestructo Bust - Turboneger - tab, song lyric, sheet, guitar, ukulele
Maybe you like