Chord/Tab song: Scumbag City - The Strypes

Chord,Tablature, lyric, sheet, guitar, ukulele song: Scumbag City - The Strypes - ( Intro: [1] [2] [3] [4] [1] [2] [3] [4] Verse: With in...)

--
Intro:

[1] [2] [3] [4] [1] [2] [3] [4]

e-10--10-9--7----|7--7-9--10----|
B-10--10-10-8----|8--8-10-10----|
G-11--11-9--7----|7--7-9--11----|
D----------------|--------------|
A----------------|--------------|
E----------------|--------------|


Verse: With intro chords

There's empty cans on River Street, scumbag city blues
Sunday morning's indiscrete, Saturday left clues
Last night's claps and filthy slaps need oh no excuse
Are you cutting out or holding back a loop hole or a noose

Pre-chorus:
Get me [A]out, oh get me [A]out
Cause I'm [G]here to bruise[G]
Oh get me [A]out, oh get me [A]out
Of this [G]scumbag city[G]

Chorus:



e-------------------|
B-------------------|
G-5-4---------------| x4
D-------3h4---------|
A-----5-----2-3-----|
E-------------------|


Scumbag city blues, scumbag city blues

Main Riff:



e-------------------|-------------------|
B-------------------|-----------6b7-----|
G-5-4---------------|-5-4---------------|
D-------3h4---------|-------3h4---------|
A-----5-----2-3-----|-----5-------------|
E-------------------|-------------------|


Verse: With main riff

Just another howling wolf on the killing floor below
Oh no lie you'll find in the first line I should have quit you long ago
All those angel eyes with the red neck ties wanna see me fall on my face
And no lie you'll find I despise everything about this place

Pre-chorus:

Get me [A]out, oh get me [A]out
Cause I'm[G] here to bruise[G]
Oh get me [A]out, oh get me [A]out
Of this[G] scumbag city[G]

Chorus:



e-------------------|-------------------|
B-------------------|-----------6b7-----|
G-5-4---------------|-5-4---------------|
D-------3h4---------|-------3h4---------| x2
A-----5-----2-3-----|-----5-------------|
E-------------------|-------------------|


Scumbag city blues, scumbag city blues

Solo
And when you're [A]lying in your hotel,
Thinking[A] "good riddance to that"
Well [G]something creeps inside you yeah honey o[G]h something pulls you back
But [A]it ain't the one way system that's got you [A]uh coming back around no
[G]It's all those friends and family keeping the [G]size eights on the ground

Outro:

[1] [2] [3] [4] [1] [2] [3] [4]

e-10--10-9--7----|7--7-9--10----|
B-10--10-10-8----|8--8-10-10----|
G-11--11-9--7----|7--7-9--11----|
D----------------|--------------|
A----------------|--------------|
E----------------|--------------|


There's empty cans on River Street, scumbag city blues
Sunday morning feels complete,
When I get back to you
I could skip and give a miss,
That I'd never choose
Cause even though I take the ps
I'm glad the future's blue

Chords List

Chord: Scumbag City - The Strypes - tab, song lyric, sheet, guitar, ukulele
Maybe you like