Chord/Tab song: Schwan - Turbostaat

Chord,Tablature, lyric, sheet, guitar, ukulele song: Schwan - Turbostaat - ( Git 1: Intro x4 [A#] [G] [1] [2] [3] [4] [1] [2] [3] [4]...)

3 years ago551 Schwan (2003) Turbostaat
--
Git 1:
Intro x4
[A#] [G]
[1] [2] [3] [4] [1] [2] [3] [4] [1] [2] [3] [4] [1] [2] [3] [4]

E---------------------------------------|
H---------------------------------------|
G--11--11--11--11----12--12--12--12-----|
D--11--11--11--11----12--12--12--12-----|
A--9---9---9---9-----10--10--10--10-----|
E---------------------------------------|


Strophe: 1 & 2
[A#] [G]
[1] [2] [3] [4] [1] [2] [3] [4] [1] [2] [3] [4] [1] [2] [3] [4]

E-----------------------------------------|
H-----------------------------------------|
G--11--11--11--11----12--12--12--12-------|
D--11--11--11--11----12--12--12--12-------|
A--9---9---9---9-----10--10--10--10-------|
E-----------------------------------------|

xxxxxxxxxxxxxxxxxxxxxxxxxxxxxxx

Rafain 1&2
Part: 1/3

[1] [2] [3] [4] [1] [2] [3] [4] [1] [2] [3] [4] [1] [2] [3] [4]

E-----------------------------------------------------------------------|
H-----------------------------------------------------------------------|
G--11--11--12--12--14--14--16--16--14--14--14-----11-----6-----7--------|
D--11--11--12--12--14--14--16--16--14--14--14(x3)-11(x3)-6(x3)-7(x3)----|
A--9---9---10--10--12--12--14--14--12--12--12?----9------4-----5--------|
E-----------------------------------------------------------------------|


Part:2
[1] [2] [3] [4] [1] [2] [3] [4] [1] [2] [3] [4] [1] [2] [3] [4]

E------------------------------------------------------------------------|
H------------------------------------------------------------------------|
G--11--11--12--12--14--14--16--16--14--14--7-----6-----14-----11---------|
D--11--11--12--12--14--14--16--16--14--14--7(x3)-6(x3)-14(x3)-11(x3)-----|
A--9---9---10--10--12--12--14--14--12--12--5?----4-----12-----9----------|
E------------------------------------------------------------------------|


Nur am Ende des ersten Rafain
[1] [2] [3] [4] [1] [2] [3] [4] [1] [2] [3] [4] [1] [2] [3] [4]

E------------------|
H------------------|
G--6-----7---------|
D--6(x3)-7(x3)-----|
A--4-----5---------|
E------------------|


Bridge
[1] [2] [3] [4] [1] [2] [3] [4] [1] [2] [3] [4] [1] [2] [3] [4]

E----------------------------------|
H----------------------------------|
G--5---------------17-------17-----|
D--5-----oder -----17?oder -x------|
A--3---------------15-------15-----|
E----------------------------------|

Bin mir nicht sicher

Outro 1
[1] [2] [3] [4] [1] [2] [3] [4] [1] [2] [3] [4] [1] [2] [3] [4]

E------------------------|
H------------------------|
G--14-----11-----9-------|
D--14(x3)-11(x3)-9(x3)---|
A--12-----9------7-------|
E------------------------|



Wenn das Schlagzeug zum Rightbecken wechselt Outro 2
Outro 2 bis zum ende
[1] [2] [3] [4] [1] [2] [3] [4] [1] [2] [3] [4] [1] [2] [3] [4]

E--------------------------------------------------------------|
H--------------------------------------------------------------|
G--11-11--9--9--11-11--9--9--11------14----------11------------|
D--11-11--9--9--11-11--9--9--11(x3)?-14(x3)------11------------|
A--9--9---7--7--9--9---7--7--9-------12----------9-------------|
E--------------------------------------------------------------|



Hrt euch den Song an um den Rhythmus zu erkennen
Ich hoffe es ist einiger maen richtig.

Turbostaat
| / slide up
| \ slide down
| h hammer-on
| p pull-off
| ~ let ring
| + harmonic
| x Mute note

Chords List

Chord: Schwan - Turbostaat - tab, song lyric, sheet, guitar, ukulele
Maybe you like