Hợp âm - tab: Salvation - Caliban - cảm âm - lời bài hát

Cảm âm, tablature, hợp âm, tabs guitar, ukulele, lời bài hát: Salvation - Caliban - ( Band: Caliban Album: The Opposite From Within Song: Salva...)

--
Band: Caliban
Album: The Opposite From Within
Song: Salvation

Copyright (c) Roadrunner Records 2004
Version 1.0 - 11jan 2004

Transcribed By: TTyranTT
Email: ordonance@hotmail.com

I'm still practicing to improve my skills, so for the time being I stick to
standard tuning with any song.

PART 1



E[----|--------------------------------|--------------------------------|
B[----|--------------------------------|--------------------------------|
G[----|--------------------------------|--------------------------------|
D[5-3-|5-------------------------------|----------------------------5-3-|
A[3-1-|3-------------------------------|----------------------------3-1-|
E[3-1-|3-------------------------------|----------------------------3-1-|
E[--------------------------------|--------------------------------|
B[--------------------------------|--------------------------------|
G[--------------------------------|--------------------------------|
D[5-------------------------------|8---------------5---------------|
A[3-------------------------------|6---------------5---------------|
E[3-------------------------------|6---------------3---------------|


PART 2


E[----|--------------------------------|--------------------------------|
B[----|--------------------------------|--------------------------------|
G[----|--------------------------------|--------------------------------|
D[----|--------------------5-----------|--------------------5-----------|
A[----|--------5---6---------8-6-------|--------5---6---------8-6-------|
E[8-6-|8-8-8-8---------8-8---------8-6-|8-8-8-8---------8-8---------8-6-|




E[--------------------------------|--------------------------------|
B[--------------------------------|--------------------------------|
G[--------------------------------|--------------------------------|
D[--------------------5-----------|8---------------5---------------|
A[--------5---6---------8-6-8-----|6---------------3---------------|
E[8-8-8-8---------8-8-------------|6---------------3---------------|


PART 3A


E[--------------------------------|
B[--------------------------------|
G[--------------------------------|
D[----4---6-------4---6-----------|
A[3-3-4---6---3-3-4---6---3-3-3-3-|
E[3-3-4---6---3-3-4---6---3-3-3-3-|

PART 3B


E[--------------------------------|
B[--------------------------------|
G[--------------------------------|
D[----4---6-------4---6-----------|
A[3-3-4---6---3-3-4---6-----------|
E[3-3-4---6---3-3-4---6-----------|

PART 3C


E[--------------------------------|
B[--------------------------------|
G[--------------------------------|
D[----4---6-------4---6-----------|
A[3-3-4---6---3-3-4---6---33333333|
E[3-3-4---6---3-3-4---6---33333333|


PART 4


E[--------------------------------|
B[--------------------------------|
G[--------------------------------|
D[3-------------------------------|
A[1-------------------------------|
E[1-------------------------------|


PART 5


E[--------------------------------|--------------------------------|
B[--------------------------------|--------------------------------|
G[--------------------------------|--------------------------------|
D[8-------------------------------|5-------------------------------|
A[6-------------------------------|3-------------------------------|
E[6-------------------------------|3-------------------------------|
E[--------------------------------|--------------------------------|
B[--------------------------------|--------------------------------|
G[--------------------------------|--------------------------------|
D[8-------------------------------|5-------------------------------|
A[6-------------------------------|5-------------------------------|
E[6-------------------------------|3-------------------------------|


PART 6


E[--------------------------------|
B[--------------------------------|
G[5---5---5---5---5---5---5---5---|
D[5---5---5---5---5---5---5---5---|
A[3---3---3---3---3---3---3---3---|
E[3---3---3---3---3---3---3---3---|


song structure
PART 1 (2x)
PART 2 (2x)
PART 3A (4x)
PART 3B (4x)
PART 3C (3x)
PART 2end
PART 2 (2x)
PART 4
PART 5 (2x)
PART 3A (4x)
PART 3B (4x)
PART 3C (4x)
PART 6 (2x)
PART 5 (2x)
PART 0
PART 1 (2x)
PART 2 (2x)
PART 3B (4x)

Danh sách hợp âm

Hợp âm: Salvation - Caliban - cảm âm, tab guitar, ukulele - lời bài hát
Có thể bạn thích