Chord/Tab song: Remember Me - The Zutons

Chord,Tablature, lyric, sheet, guitar, ukulele song: Remember Me - The Zutons - ( -------------------------------------------------------...)

3 months ago30 The Zutons
--
----------------------------------------------------------------------------

Author/Artist: The Zutons
Title: Remember Me
Album: Who Killed.....the Zutons?

Intro

[C] [D] [C] [D]
[C] [D] [C] [D]
Verse 1
Well we [G]used to be the best of friends
And we [Em]used to hang around
[G]Now I always see you and your new girlfriend
On the [Em]sunny side of town
Oh your [G]body is the same and your face ain't changed
But your [Em]mind ain't where that's at
You're [G]too busy hugging and a-kissing now
And for [Em]you that can't be bad

But [C]I've made a deal [D]with the clouds
Gonna [C]turn that sun into [D]rain
So [C]you forget about your [D]love
[C]Come and see me [D]again

Pre Chorus
Oh re[C]member me I'm [D]your best friend
And [C]we don't talk no [D]more
So [C]if you're in the [D]neighbourhood
Don't [C]forget to knock on my [D]door

Chorus
Cause I've [G]got to keep the feeling, keep the feeling in
[Em]Gotta keep the feeling, keep the feeling in
[G]Gotta keep the feeling, keep the feeling in
[Em]Gotta keep the feeling, keep the feeling in

Solo



----------3-----3----3--------12--------12------------10----------------------|
-----------3-----3---------------12--------12----12------12-10h12p10--8\5-----|
------2h4-----4----4------/12-------12--------12------------------------------|
-4-5--------------------------------------------------------------------------|
------------------------------------------------------------------------------|
------------------------------------------------------------------------------|
------------------------------------------------------------------------------|
-3-3h5p3---0h1p0--------------------------------------------------------------|
------------------2--0--2--0--------------------------------------------------|
------------------------------------------------------------------------------|
------------------------------------------------------------------------------|
------------------------------------------------------------------------------|


Verse 2 (same as verse 1)

Now I stand upon your path
And I'm shouting up to you
Won't you come and give me a minute now
There's a message here for you
Me and a couple of old school friends
We're going out to drink
You can come along but leave your girl at home
It'll give you time to think

But you called at the last minute
Said that you were staying in
Well this is not a joke old friend
I'm a-getting sick of this

Pre Chorus

Oh remember me when she leaves you
And you come and knock on my door
Well I can nurse your broken heart
Cause that's what friends are for

Chorus
Cause I've got to keep the feeling, keep the feeling in
Gotta keep the feeling, keep the feeling in
Gotta keep the feeling, keep the feeling in
Gotta keep the feeling, keep the feeling in

Outro

[G] [Em]

Chords List

Chord: Remember Me - The Zutons - tab, song lyric, sheet, guitar, ukulele
Maybe you like