Chord/Tab song: Reaching - Jason Reeves

Chord,Tablature, lyric, sheet, guitar, ukulele song: Reaching - Jason Reeves - ( Standard Tuning Capo 6th Right i dont know the names of ...)

--
Standard Tuning
Capo 6th

Right i dont know the names of these chords only been playing a few months but ill name
myself and give you the chord shapes :) You can work out strumming pattern its easy :)

G



E|----3-------------|
G|----3-------------|
B|----0-------------|
D|----0-------------|
A|----2-------------|
E|----3-------------|


D



E|---3--------------|
G|---3--------------|
B|---2--------------|
D|---0--------------|
A|------------------|
E|------------------|


E



E|----3-------------|
G|----3-------------|
B|----0-------------|
D|----2-------------|
A|----2-------------|
E|------------------|


Csus2'?



E|----3-------------|
G|----3-------------|
B|----0-------------|
D|----2-------------|
A|----3-------------|
E|------------------|


( Tab from: http://www.guitartabs.cc/tabs/j/jason_reeves/reaching_crd.html )
G[G]irl, you are like s[D]ummer rain[E]
Soft and wa[Csus2]rm and delicate
[G]And I am a foo[D]lish boy[E]
Tryin' to catch every d[Csus2]rop of you
On my tongue...
[Am]But there's just to[Csus2]o many
And[Am] I can't get enou[Csus2]gh...
[G]You're inches from my fin[D]gertips
I've c[E]ome as close as[Csus2] I can get
[G]I'm reaching but the [D]rest is up to [E]you...[Csus2]
Cause [G]I don't ever wa[D]nna miss
B[E]eing here with yo[Csus2]u like this
[G]I'm trying but it's [D]all that I can [E]do[Csus2]
[G]I'm reaching but the[D] rest is up to [E]you...[Csus2]

and you can work out rest its easy :) hope you like it any help appreciated

Chords List

Chord: Reaching - Jason Reeves - tab, song lyric, sheet, guitar, ukulele
Maybe you like