Chord/Tab song: Public Service Announcement - The Bravery

Chord,Tablature, lyric, sheet, guitar, ukulele song: Public Service Announcement - The Bravery - ( Public Service Announcement - The Bravery Tabbed By ...)

--

-------------------------------------------------------------------------------

Public Service Announcement - The Bravery


-------------------------------------------------------------------------------


Tabbed By : Bass Monkey
This is a slick little disco flavored octave bass lick by the new band The Bravery.
They are an awesome new band with that cool 80s New Wave sound that I love.
Enjoy.

Tuning:
[A] [B] [D]

G|-----------------------|----------------------|----------------------------|
D|----7-7--5--7---5---7--|----9-9--7--9---7--9--|-----12-12------------------|
A|-----------------------|----------------------|------------10--12---10--12-|
E|-5---------------------|-7--------------------|-10-------------------------|
G|---------------------------------------------------------------------------|
D|----12-----4-----5-----6---------------------------------------------------|
A|---------------------------------------------------------------------------|
E|-10-----2-----3-----4------------------------------------------------------|


| / slide up
| \ slide down
| h hammer-on
| p pull-off
| ~ vibrato
| + harmonic
| x Mute note

Chords List

Chord: Public Service Announcement - The Bravery - tab, song lyric, sheet, guitar, ukulele
Maybe you like