Chord/Tab song: Parole nuove - Matteo Branciamore

Chord,Tablature, lyric, sheet, guitar, ukulele song: Parole nuove - Matteo Branciamore - ( Hi! I've seen some requests of this song and, i'm am ital...)

--
Hi! I've seen some requests of this song and, i'm am italian so i've
inserted all the chords and part of the tabs of this song. Enjoy ^^

Ciao| Ho visto molte richieste di qst canzone cs ho deciso di postarla...
sono gli accordi e la tablatura dell arpeggio che dura tutta la canzone.
Commentate ;) e nn dimenticate di votare.. grazie ^^

nemesis.14@hotmail.it

Matteo Branciamore ? Parole Nuove

Intro: (x2)
Chitarra 1 (Acustica)


e|----------|----------|----------|---------|
B|----0-1---|----0-1---|----0-1---|----0-1--|
G|---2----0-|---2----0-|---0----0-|---0-----|
D|--2-------|--3-------|--2-------|--0------|
A|-0--------|----------|-3--------|---------|
E|----------|-1--------|----------|-3-------|
e|----------|----------|----------|-----------|
B|----0-1---|----0-1---|----0-1---|-5-3--1--0-|
G|---2----0-|---2----0-|---0----0-|-5-4--2--1-|
D|--2-------|--3-------|--2-------|-----------|
A|-0--------|----------|-3--------|-----------|
E|----------|-1--------|----------|-----------|


Questo va all'inizio della seconda volta dell'arpeggio
Chitarra 2 (Elettrica)


e|---------|--------|--------|--------|
B|-5-5-5-5-|6-6-6-6-|8-8-8-8-|8-8-8-8-|
G|---------|--------|--------|--------|
D|---------|--------|--------|--------|
A|---------|--------|--------|--------|
E|---------|--------|--------|--------|
e|---------|--------|--------|--------|
B|-5-5-5-5-|6-6-6-6-|8-8-8-8-|-999999-|
G|---------|--------|--------|--------|
D|---------|--------|--------|--------|
A|---------|--------|--------|--------|
E|---------|--------|--------|--------|


VERSE:
D[Am]icono che senza a[F]mare non si pu comporre una [C]canzone
il miglior p[G]lettrola passio[Am]ne
per ritrovare [F]le corde di una nuova is[C]pirazione
devi [E]soffrire un al[Am]tro p
e galleggiare in fondo al [F]pozzo che ha scavato l'o[C]ssessione
soltanto al b[G]uio cerchi [Am]il sole
in equilibrio ins[F]tabile sul ciglio di un b[C]urrone
ma i[E]o non voglio andare gi[Am][F][C][G]
e guardo s[Am]u[F][C][E]

CHOURS:

F[A]uori dall'oblo vedo una schiera di s[C#m]telle
che mi pregano di usare altre parole pi [F#m]belle
niente amore niente mare sole sa[F]le perch
musi[G]ca e [A]parole sono sbronze dentro stanze piene d'api[C#m] e zanzare
ridono dei nostri sforzi ma lo[D] so che se spalanco la po[E]rta io le liberer[Am][F][C][G]

[Am] [F] [C] [E]
[Am]Cadono le lettere magneti[F]che dal frigo vecchio e[C] stanco
il pavim[G]entoun foglio [Am]bianco
ed io in ginocc[F]hio a schiccherarle tutte[C] come biglie
una ogn[E]i cento facci[Am]o goal
lo stadiopieno [F]di tifosi pronti a darmi del[C] campione
ogni [G]parola fa u[Am]n mattone
e costruisco st[F]anze colorate senza t[C]etto

e finalment[E]e guardo

F[A]uori dall'oblo vedo una schiera di [C#m]stelle
che mi pregano di usare altre parole p[F#m]i belle
niente amore niente mare sole sal[F]e perch
musica[G] e pa[A]role sono sbronze dentro stanze piene d'api e[C#m] zanzare
ridono dei nostri sforzi m[D]a lo so che se lascia andare la t[E]esta non ti dico

[A]Fuori dall'oblo vedo una schiera di[C#m] stelle
che mi pregano di usare altre parole pi[F#m] belle
niente amore niente mare sole sale [F]perch
musica[G] e p[A]arole sono sbronze dentro stanze piene d'api [C#m]e zanzare
ridono dei nostri sforzi ma l[D]o so che se lascia andare[E] la testa
non dicono di[A] no

http://www.matteobranciamore.it/

Chords List

Chord: Parole nuove - Matteo Branciamore - tab, song lyric, sheet, guitar, ukulele
Maybe you like