Chord/Tab song: Over My Dead Body - Drake

Chord,Tablature, lyric, sheet, guitar, ukulele song: Over My Dead Body - Drake - ( (Chord progression, played entire song) [F#9] [G#] [G#] [...)

3 years ago664 Take Care (2011) Drake
--
(Chord progression, played entire song)
[F#9] [G#] [G#] [F#]

e|--4---------4---------x---------x------------|
B|--2---------4---------4---------2------------|
G|--3---------5---------5---------3------------|
D|--2---------6---------6---------4------------|
A|--4---------6---------6---------4------------|
E|--2---------4---------x---------2------------|


(Riff, played occasionally)


e|--------------16-----------------16-------------------------|
B|------14--14------14---13-------------13--------------------|
G|------------------------------------------------------------|
D|------------------------------------------------------------|
A|------------------------------------------------------------|
E|------------------------------------------------------------|
e|--------------16-----------------16-------------------------|
B|------14--14------14---13-----------------------------------|
G|--------------------------------------15--------------------|
D|------------------------------------------------------------|
A|------------------------------------------------------------|
E|------------------------------------------------------------|

Chords List

Chord: Over My Dead Body - Drake - tab, song lyric, sheet, guitar, ukulele
Maybe you like