Chord/Tab song: Northern Lights - Towers of London

Chord,Tablature, lyric, sheet, guitar, ukulele song: Northern Lights - Towers of London - ( Northern Lights - Towers of London Tabbed by: Declan ...)

--

-------------------------------------------------------------------------------

Northern Lights - Towers of London


-------------------------------------------------------------------------------

Tabbed by: Declan Hyland
Email: declan.hyland@hotdeploy.com

Tuning: Standard eBGDAE

This is my first tab so if it's hard to read, it means I haven't gotten the hang of this yet.

I haven't finished tabbing the lead bits and solos, so I've included the start and end
the solo, and a few lead bits. It seems to be based on the G major/minor pentatonics anyway.

Guitar 1: Acoustic
Guitar 2: Rhythm Electric
Guitar 3: Lead Electric

Bridge: Guitar 1

[G]You know you've seen them northern [C]lights[C][A][G]
Youve never seen them there be[C]fore[D]
G C C#add5b?
We could have been anything that we wanted to be
[G]We took the [C]ea[B]sy [A]way [G]out

C#add5b:

[---]
[-2-]-0-
[-3-]
[-4-]
[---]

Guitars 2 & 3:



e|------------|
B|------------|
G|--------5---|
D|-8-7-5--5-8-| X 4
A|-8-7-5--3-8-|
E|-6-5-3----6-|


Verse: Bass

[G]Theyre comin out to[B]day
but [C]ive got a thing for Rock and [C]Roll[A]
[G]and i can hear them [B]say in [C]London, Glasgow, [D]Tokyo

Guitars 1 & 2

[G]Theres people in the house [B]lining up the streets
[C]Workers making love in the [C#add5b]factories
but [G]eh oh [C]i [B]feel [A]like [G]a child..

[G]Its got me thinkin tho that

Chorus: Guitars 2 & 3

[F]They don't [G]know that its up to me
[F]Them black [G]holes is where i'm gonna be
[F]We're just [E]wasting time
The [D]girls are here and theyve got me goin crazy

Guitar 2


e|------------|
B|------------|
G|--------5---|
D|-8-7-5--5-8-| X 2
A|-8-7-5--3-8-|
E|-6-5-3----6-|


Guitar 3


e|-6-5-3--8-6-|
B|------------|
G|------------| x2
D|------------|
A|------------|
E|------------|


Verse: Guitar 2 (PM)

[G]You got me climbing up the [B]wall
The [C]Eiffel tower never seemed so small

Bass:

[G]Now dont you look the other [B]way(way)
or [C]you might miss the [D]light parade

Guitars 1 & 2
( Tab from: http://www.guitartabs.cc/tabs/t/towers_of_london/northern_lights_tab.html )
[G]Theres people in the house, [B]beggars on the streets
[C]Workers making love in the [Cadd5b]factories
and [G]eh oh [C]i [B]feel [A]like [G]a child

[G]Its got me thinkin tho that

Chorus: Guitars 2 & 3

[F]They don't [G]know that its up to me
[F]Them black [G]holes is where i'm gonna be
[F]We're just [E]wasting time
The [D]girls are here and theyve got me goin crazy

[F]They don't [G]know that its up to me
[F]Them black [G]holes is where i'm gonna be
[F]We're just [E]wasting time
The [D]girls are here and it's got me goin crazy

Bridge:

Guitar 3:

Start of solo:



e|--------------------------|
B|------7b8rb---------------|
G|------------3h5-3b-3h5-3~-|
D|-5~-----------------------|
A|--------------------------|
E|--------------------------|


End of solo:



e|-14brb--------------|
B|-------14brb-12-----|
G|----------------12~-|
D|--------------------|
A|--------------------|
E|--------------------|


Guitars 1 & 2:

[G]You know you've seen them northern [C]lights[C][A][G]
Youve never seen them there be[C]fore[D]
G C C#add5b
We could have been anything that we wanted to be

Guitar 3:


e|----------------|
B|----------------|
G|-4b-4b-4b-4br---|
D|--------------5-|
A|----------------|
E|----------------|


[G]We took the [C]ea[B]sy [A]way [G]out

Chorus

[F]They don't [G]know that its up to me
[F]Them black [G]holes is where i'm gonna be
[F]We're just [E]wasting time
The [D]girls are here and theyve got me goin crazy

[F]They don't [G]know that its up to me
[F]Them black [G]holes is where i'm gonna be
[F]We're just [E]wasting time
The [D]girls are here and it's got me goin crazy

Read my lips yeah it's got me goin grazy

Guitar 2:



e|------------|
B|------------|
G|--------5---|
D|-8-7-5--5-8-| X 2
A|-8-7-5--3-8-|
E|-6-5-3----6-|


Yeah it's got me goin crazy!



e|----------------------------|
B|----------------------------|
G|--------5------------5------|
D|-8-7-5--5-8---8-7-5--5-8~-\-|
A|-8-7-5--3-8---8-7-5--3-8~-\-|
E|-6-5-3----6---6-5-3----6~-\-|


| / slide up
| \ slide down
| h hammer-on
| p pull-off
| ~ vibrato
| + harmonic
| x Mute note

Chords List

Chord: Northern Lights - Towers of London - tab, song lyric, sheet, guitar, ukulele
Maybe you like