Chord/Tab song: Nobena - 1017

Chord,Tablature, lyric, sheet, guitar, ukulele song: Nobena - 1017 - ( Tuning: Half-step down Intro: D-Bm (2x) [D]Oras na n...)

2 months ago16 TenSevenTeen (2007) 1017
--
Tuning: Half-step down

Intro: D-Bm (2x)



--0-22-02---55----------------------------------------------I
--3-33-33---55----------------55-77-57-1010-----------------I
------------------------------------------------------------I
--0-00-00---------------------------------------------------I
------------------55--------------------------55------------I
--------------------7---------------------------7-----------I


[D]Oras na naman ng p[Bm]aglubog ng araw
[D]Takip silim ay unt[Bm]i-unting dumarating
G A D-Bm-D-Bm....
Nagtatanong kung kailan ka babalik.....



------------------------------------------------------------I
--55-77-1010--------------55-77-1010------------------------I
------------------------------------------------------------I
------------------------------------------------------------I
---------------55----------------------55-------------------I
-----------------5-----------------------7------------------I


[D]Sa bawat oras na talk l[Bm]ang ang alaala
[D]Buhay pa rin sa isip a[Bm]ng nakaraan
[G]Nagtatanong sa langit k[A]ung....

Chorus:



-------17--17...............................................I

---1415--15.................................................I


------------------------------------------------------------I
------------------------------------------------------------I
------------------------------------------------------------I
------------------------------------------------------------I

(ganito po ung tunog sa chorus...adlib...timingan na lang po...)

[D]Ilang ulit na panlangin ang a[Bm]king gagawin
Bu[G]malik ka lang dito s[A]a piling ko
[D]Ilang ulit nagdarasal san[Bm]a ay malaman mo
[G]Na kailangan kita sa [A]buhay ko..[D-Bm-D-Bm].



------------------------------------------------------------I
--55-77-1010--------------55-77-1010------------------------I
------------------------------------------------------------I
------------------------------------------------------------I
---------------55----------------------55-------------------I
-----------------5-----------------------7------------------I


[D]Lamig ng hanging ay d[Bm]i ko naalintana
[D]Bilanggo pa rin ang a[Bm]king alaala
[G]Hinahanda pa din ang y[A]akap k[D-Bm-D-Bm]o....



------------------------------------------------------------I
--55-77-1010--------------55-77-1010------------------------I
------------------------------------------------------------I
------------------------------------------------------------I
---------------55----------------------55-------------------I
-----------------5-----------------------7------------------I


[D]Sa bawat oras na talk l[Bm]ang ang alaala
[D]Buhay pa rin sa isip a[Bm]ng nakaraan
[G]Nagtatanong sa langit k[A]ung....

Chorus:



-------17--17...............................................I

---1415--15.................................................I


------------------------------------------------------------I
------------------------------------------------------------I
------------------------------------------------------------I
------------------------------------------------------------I


[D]Ilang ulit na panlangin ang a[Bm]king gagawin
Bu[G]malik ka lang dito s[A]a piling ko
[D]Ilang ulit nagdarasal san[Bm]a ay malaman mo
G A Bm....(adlib)
Na kailangan kita sa buhay ko...



------------------------------------------------------------I
------------------------------------------------------------I
------------------------------------------------------------I
------------------------------------------------------------I
------------------------------------------------------------I
-----7------8-10-7------8-10-7------------------------------I


(koro)3x....

outro:



------------------------------------------------------------I
--55-77-1010------------------------------------------------I
------------------------------------------------------------I
------------------------------------------------------------I
---------------55--------------------------5(hold)----------I
-----------------5-------3-------5555-5555------------------I


(fin)

Chords List

Chord: Nobena - 1017 - tab, song lyric, sheet, guitar, ukulele
Maybe you like