Chord/Tab song: No Mercy - The Stranglers

Chord,Tablature, lyric, sheet, guitar, ukulele song: No Mercy - The Stranglers - ( INTRO. RAPIDLY X 2 e-7-7-7-7-7-7-7-7-7----------------...)

--
INTRO. RAPIDLY X 2



e-7-7-7-7-7-7-7-7-7----------------------------------|
--------------------8-6----8-8-8-8-8-8-8-8-8---------|
---------------------------------------------10--7---|
-----------------------------------------------------|
-----------------------------------------------------|
E----------------------------------------------------|
-----------------------------------------------------|
-----------------------------------------------------|
-7-7-7-7-7-7-7-7-7--5--2-----------------------------|
--------------------------5-5-5-5-5-5-5-5-5--3--0----|
-----------------------------------------------------|
-----------------------------------------------------|

( Tab from: http://www.guitartabs.cc/tabs/s/stranglers/no_mercy_crd.html )
ev[G]eryday your working like a slave
sweating buckets hoping that you [F]get it right
[C]will it be as tough tomorrow h[Bb]ave to wait and see
life shows no [G]mercy
e[G]veryday your love is getting warmer
just look at her and love her. did u[F] get it right
[C]will she sooth your brow with kisses o[Bb]nly meant for thee
she shows no m[G]ercy..she shows no mercy

CHORUS

an[A]d when you hold her close to u
j[Bb]ust when your feeling good its true
life shows no me[G]rcy life shows no mercy

life shows no mercy life shows no mercy

ev[G]ryone has some secret wishes
just keep your fingers crossed maybe t[F]heyll all come true
b[C]ut dont worry if they just r[Bb]emain a fantasy
life shows no m[G]ercy

e[G]verone seems the same all over
the search is on for love and comfort [F]constantly
i[C]f it comes your way tomorrow co[Bb]unt yourself lucky
life shows no m[G]ercy...life shows no mercy

CHORUS...END

Chords List

Chord: No Mercy - The Stranglers - tab, song lyric, sheet, guitar, ukulele
Maybe you like