Chord/Tab song: Nepenthe - Sentenced

Chord,Tablature, lyric, sheet, guitar, ukulele song: Nepenthe - Sentenced - ( by SENTENCED tune down 1/2 step INTRO [Dm] | rh...)

3 months ago41 Other Songs Sentenced
--

----------

by SENTENCED

tune down 1/2 step


INTRO
[Dm]

eb|---------0h1-------------0h1---------------------------|
Hb|-3-----3---------3-----------3-----3-------------------| intro menee
Gb|-2---2---------2-------2---------2---2-0---------------| jotenkin
Db|-0-0---------0-----2-2---------2---------3-2-0----0-2--| nin
Ab|------------------------------------------------4------|
Eb|-------------------------------------------------------|

|


|-3-------3h5-------8-----6h8p8---5-6-5-3---------------|
|-----------------------------------------6-5-3----3-5--|
|------------------------------------------------6------|
|-------------------------------------------------------|
|-------------------------------------------------------|
|-------------------------------------------------------|


rhy fig 6.


|------------------------------------------------------------------|
|-3------3-----3---3-----3-----3---1-----1-----1---1-----1-----1---|
|------2-----2---2-----2-----2---2-----0-----0---0-----0-----0---0-| 2x
|----0-----0---------0-----0--------3-----3----------2-----2-------|
|------------------------------------------------------------------|
|------------------------------------------------------------------|
|------------------------------------3---------1-----|
|-1-----0h1-----3p1-----0h1----------3---------1-----|
|-2-----2-------2-------2------------0---------2-----|
|-2-2-------2-------2-------2--------------3---------|
|-0---0-------0-------0-------0--2-----2---3-----3---|
|----------------------------------3-----3-1-1-----1-|
|-------------------------------------------------|
|-1-----0h1-----3p1-----0h1-----------------------|
|-2-----2-------2-------2-------------------------|
|-2-2-------2-------2-------2-0---0---------3-----|
|-0---0-------0-------0---------3---3-2-3---------|
|-------------------------------------------------|


rhy fig 1.


|----------------------------------------------------|
|-----------------------------6----------------------|
|-2--2-----3--3-----3-3-----5-7-----4--4-----4-4-----|
|-3--3-----3--3-----3-3-----7-7-----5--5-----5-5-----|
|------0-0------0-0-----0-0-----0-0------0-0-----0-0-|
|----------------------------------------------------|

end rhy fig 1.


|---------------------------5--5-----3--3-----3-3-----|
|---------------------------6--6-----5--5-----5-5-----|
|-2--2-----3--3-----3-3-----7--7-----5--5-----5-5-----|
|-3--3-----3--3-----3-3-------------------------------|
|------0-0------0-0-----0-0------0-0------0-0-----0-0-|
|-----------------------------------------------------|


rhy fig 2.
[Hb5] [F5] [C5] [Hb5] [C5]

|--------------------------------|-----------------------------------|
|'-8h10p8-----------------------'|-8h10p8----------------------------|
|---------10-7-------7--10---9---|--------10-7-------10---9--10--12--|
|----------------8---------------|---------------8-------------------|
|'------------------------------'|-----------------------------------|
|--------------------------------|-----------------------------------|


rhy fig 3.
[D5] [C5] [Hb5]

|-------------------------------------------------|
|-------------------------------------------------|
|-2h3p2-0-2-------7\5-----5\3-----3\2-----2p0-----|
|-------------------------------------------------|
|-------------0-0-----0-0-----0-0-----0-0-----0-0-|
|-------------------------------------------------|

D5 C5 Hb5 end rhy fig 3.


|------------------------------------------------------|
|------------------------------------------------------|
|-2h3p2-0-2-------7/9-----9/10-----10/12-----12/14-----|
|------------------------------------------------------|
|-------------0-0-----0-0------0-0-------0-0-------0-0-|
|------------------------------------------------------|


rhy fig 4.
[A5] [G5] [F5] [A5] [G5] [F5]

|------------------------------------------------------------------|
|------------------------------------------------------------------|
|-2h3p2-0-2------------------------2h3p2-0-2-----------------------|
|------------------------------------------------------------------|
|--------------2--0--2--3/5--3--0--------------2--0--2--3/5--3--5--|
|------------------------------------------------------------------|


-rhy fig 3.

fhy fig 5.
[A5] [G5] [F5]

|----------------------------------|
|----------------------------------|
|-2h3p2-0-2------------------------|
|----------------------------------|
|-------------2--0--2--3/5--3--0---|
|----------------------------------|

end rhy fig 5.


|--------------------------------------------------------|
|--------------------------------------------------------|
|-2h3p2-0-2----------------------------------------------|
|-------------------------2--0-----0---------------3-----|
|-------------2--0--2--3--------3-----3--2--3------------|
|--------------------------------------------------------|


-solo w/rhy fig 1.
-rhy fig 2.

w/rhy fig 6.


|---------------------------------|
|---------------------------------| jokaisen merkin kohdalla
|---------------------------------| 8 lyni
|-------------------------3-------| esim.
|-5---5---3---1---5---5-------3---| 5 5-5-5-5-5-5-5-5-
|---------------------------------|


-rhy fig 4.
-rhy fig 3.
-rhy fig 5.
-intro
-intro

Chords List

Chord: Nepenthe - Sentenced - tab, song lyric, sheet, guitar, ukulele
Maybe you like