Chord/Tab song: Natt og Dag - Rudi Myntevik

Chord,Tablature, lyric, sheet, guitar, ukulele song: Natt og Dag - Rudi Myntevik - ( Natt og Dag Intro e|---------------------------------...)

--
Natt og Dag

Intro



e|---------------------------------|
B|---------------------------------|
G|------2/3-------------2--0-------|
D|--0-------3\2--0-----------3\2---|
A|------------------3--------------|
E|---------------------------------| x2


Verse 1
Natt[Dm] og Dag høres liv[Bb]svesnens rop:
Helli[F]g, hellig, he[C]llig
Er H[Dm]erren Gud den allmekt[Bb]ige
Han som v[F]ar og som er og som Ko[C]mmer



e|---------------------------------|
B|---------------------------------|
G|------2/3-------------2--0-------|
D|--0-------3\2--0-----------3\2---|
A|------------------3--------------|
E|---------------------------------|


Verse 2
Der [Dm]du er Gud er lovpr[Bb]isningen
Og f[F]rykten for din v[C]eldig makt
Du[Dm] har skapt alle [Bb]ting med ditt ord
Du er [F]Herren over hel[C]e jorden

Chorus
D[D]u er god og din n[A]åde varer[Hm] i all evig[G]het
[D]Du er god og din [A]nåde vare[Hm]r i all evi[G]ghet
[D]Du er god og din [A]nåde vare[Hm]r i all evi[G]ghet


Bridge
Ma[D]kten og æren ti[A]lhører deg
Makten[Em] og æren ti[G]lhører deg
Ma[D]kten og æren ti[A]lhører deg
Makten[Em] og æren ti[G]lhører deg

Chords List

Chord: Natt og Dag - Rudi Myntevik - tab, song lyric, sheet, guitar, ukulele
Maybe you like