Chord/Tab song: Naked as We Came - Iron & Wine

Chord,Tablature, lyric, sheet, guitar, ukulele song: Naked as We Came - Iron & Wine - ( Naked As We Came - Iron and Wine Tuning: Standard No...)

3 months ago22 Iron & Wine
--

-------------------------------------------------------------------------------

Naked As We Came - Iron and Wine


-------------------------------------------------------------------------------


Tuning: Standard
No capo.

Note: This tab is more difficult than the other one on the site, but it
requires neither an alternate tuning nor a capo and it's not too
difficult to pick up. In spite of the presence of other versions,
this is the one I play to avoid having to retune and pull out the
capo. Hope someone finds it useful!

Note 2: This tab is, unfortunately, incorrect; one of the notes is off by a half-
step and there's no reasonable way to remedy that without adding a capo and
retuning, things I was trying to avoid with this tab! So consider yourself warned:
it sounds all right by itself, but it doesn't quite match the actual song.

/|Picking patterns for chords|/

[E]

E |----------0-----------0-----------0-----------0-|
B |----0-----------0-----------0-----------0-------|
G |------------------------------------------------|
D |-------6-----------6-----------6-----------6----|
A |-7----------------------------------------------|
E |-------------0-----------7-----------0----------|


[A]

E |------------------------------------------------|
B |----------2-----------2-----------2-----------2-|
G |----2-----------2-----------2-----------2-------|
D |-------2-----------2-----------2-----------2----|
A |-------------------------4-----------2----------|
E |-2-----------4----------------------------------|


[Bsus2]

E |----------------------2----------------------------|
B |----------2-----------------------2-----------2----|
G |----4-----------4-----------4-----------4----------|
D |-------4-----------4-----------4-----------4-------|
A |-2-----------2-----------2-----------2-------------|
E |---------------------------------------------------|


/|The song|/

Chorus: (Bsus2) (A) x4

Everything else: (E) (A) x4

This is vague, but I trust you can figure it out.

End on this chord:

Emaj7: xx2440

/||/

Chords List

Chord: Naked as We Came - Iron & Wine - tab, song lyric, sheet, guitar, ukulele
Maybe you like