Chord/Tab song: Must of Got Lost - The J. Geils Band

Chord,Tablature, lyric, sheet, guitar, ukulele song: Must of Got Lost - The J. Geils Band - ( Must OF Got Lost The J.Geils Band [1974]Written by Peter ...)

--
Must OF Got Lost
The J.Geils Band
[1974]Written by Peter Wolf/Seth Justman

Intro (Twice)

[C] [F]


E-----------------------------------------------
B--1-----------------1---1-------3---1----------
G--0---0---0---0/2-----------2---2---2----------
D--2-----------------------------4---4----------
A--3--------------------------------------------
E-----------------------------------------------


N[C]ever thought about tom[F]orrow

Se[C]emed like a long time to c[F]ome

H[C]ow can I be so blind b[F]aby[Em]

Dm G7 C (w/Fill 1)
Not to see you were the one

Fill 1:



E-----------------------------------------------
B--1--3--1--------------------------------------
G-----------2----0--2--0------------------------
D--------------------------2--0-----------------
A--------------------------------3--------------
E-----------------------------------------------


[C]I let you slip on from me h[F]oney

[C]I let you walk on b[F]y

[C]I refused the love you had f[F]or me

Em Dm G7 C (w/Fill 2)
I refused the love and let it die

Fill 2:



E--0--------------------------------------------
B-------------3-----------1---------------------
G-------0---------------------------------------
D-------------------3---------------------------
A-----------------------------------------------
E-----------------------------------------------


Chorus:

I must of got l[C]ost I must of got l[Dm]ost

I must of got l[F]ost s[G7]omewhere down the l[C]ine

I must of got l[C]ost I must of got l[Dm]ost

To g[F]ive away the d[G7]ays that you were m[C]ine


D[C]on't know why I let you l[F]eave me

H[C]oney I don't kn[F]ow

Th[C]ey say it's hard to see love c[F]oming

Em Dm G7 C (w/Fill 2)
But baby you always see it go

(Chorus)

L[C]ove can be a sw[F]eet thing

[C]I just don't underst[F]and

[C]I made a game of loving y[F]ou

Em Dm G7 C (w/Fill 2)
And now I hold the losing hand

(Chorus)

[C]I just can't underst[F]and it

[C]I just can't underst[F]and it

[C]I just can't underst[F]and it

C + Chorus
And I must of got lost

Outro: Repeat Chorus and Fade

Chords List

Chord: Must of Got Lost - The J. Geils Band - tab, song lyric, sheet, guitar, ukulele
Maybe you like