Chord/Tab song: Mount Teidi - Mike Oldfield

Chord,Tablature, lyric, sheet, guitar, ukulele song: Mount Teidi - Mike Oldfield - ( Artist - Mike Oldfield Song - Mount Teidi Album - Five ...)

--
Artist - Mike Oldfield

Song - Mount Teidi

Album - Five Miles Out

Tabbed By - Ayreon77



Not Sure What instrument Starts The Song?

INTRO


SECTION 1

GUITAR 1
01:15 01:26
br br br br br br


[-17-------|-15-------]
[----------|----------]
[----------|----------]
[----------|----------]
[----------|----------]
[----------|----------]
----------------------

SECTION 2

01:28
GUITAR 2
[s]

[-2\14------17-15-14------------h---14-------------|-----------------------]
[--------17----------17-15-14-15-17----17-14-17-15~|-----------------------]
[--------------------------------------------------|-------SECTION 1-------]
[--------------------------------------------------|-----------------------]
[--------------------------------------------------|-----------------------]
[--------------------------------------------------|-----------------------]


SECTION 1
GUITAR 2 h p |


[------------h------|-------------10-12-10-12-10----------10----12---s-----]
[-12-15-14-10-14-12~|-12-10-12-14----------------14-12-14----14----12\10-10]
[-------------------|------------------------------------------------------]
[-------------------|------------------------------------------------------]
[-------------------|------------------------------------------------------]
[-------------------|------------------------------------------------------]
----------------------

01:50
SECTION 3

p


[---0-2-3---0-2-3---0-2-3-2-|---2-3-5---2-3-5---2-3-5-5-]
[-3-------3-------3---------|-5-------5-------5---------]
[---------------------------|---------------------------]
[---------------------------|---------------------------]
[---------------------------|---------------------------]
[---------------------------|---------------------------]


01:57 p


[---0-2-3---0-2-3---0-2-3-2-|---2-3-5---2-3-5---2-3-5-]
[-3-------3-------3---------|-5-------5-------5-------]
[---------------------------|-------------------------]
[---------------------------|-------------------------]
[---------------------------|-------------------------]
[---------------------------|-------------------------]


02:05


[---5-7-9---5-7-9---5-7-9-10-|---3-5-7-5-3---3-5-7-5-3-]
[-8-------8-------8----------|-7-----------7-----------]
[----------------------------|-------------------------]
[----------------------------|-------------------------]
[----------------------------|-------------------------]
[----------------------------|-------------------------]


02:12


[---5-7-9---5-7-9-10-|---3-5-7-5-3--3-5-7-9-10-]
[-8-------8----------|-7-----------------------]
[--------------------|-------------------------]
[--------------------|-------------------------]
[--------------------|-------------------------]
[--------------------|-------------------------]
----------------------

02:26
SECTION 1



----------------------

02:39
SECTION 2

at the very end on 10th fret slide it to this at 03:05
[---s--]
[-10\3-]


[------]
[------]
[------]
[------]
----------------------

SECTION 4
03:10 h


[-22-17----22-17-|-17-14----15-15-17----|-22-19-22-17-22-15-|-17-14-------12]
[-------15-------|-------15----------17-|-------------------|-------12-10---]
[----------------|----------------------|-------------------|---------------]
[----------------|----------------------|-------------------|---------------]
[----------------|----------------------|-------------------|---------------]
[----------------|----------------------|-------------------|---------------]
[----17--17-19-21-]
[-15--------------]Repeat
[-----------------]SECTION 4
[-----------------]and finish
[-----------------]
[-----------------]



A Great Tune From Mike Oldfield.
Enjoy..........

Chords List

Chord: Mount Teidi - Mike Oldfield - tab, song lyric, sheet, guitar, ukulele
Maybe you like