Chord/Tab song: More Than Anyone - Gavin DeGraw

Chord,Tablature, lyric, sheet, guitar, ukulele song: More Than Anyone - Gavin DeGraw - ( (Verse 1) [E]You need a friend[D] I'll be around[A][E] [E...)

--
(Verse 1)
[E]You need a friend[D] I'll be around[A][E]
[E]Don't let this [D]end, before I s[A]ee you a-g[E]ain.
[D]What, can I sa[E]y, to convince[A] you to [C#/D]change your[D5] mind, [C#/E] [B/D]of me?[Esus7]

(Chorus)
I'm going to l[A]ove you mor[F#m7]e than any[D]one[E]
I'm going to h[A]old you clos[F#m7]er than before[E][A]
And when I ki[D]ss your s[C#/E]oul, your body'll b[B/D]e free
I'll be [Esus7]free for you [E]any-[F#m7]time
I'm going to l[D]ove you m[E]ore than anyo[A]ne

(Verse 2)
[E]Look in my eyes[D], what do you see[A]?[E]
[E]Not just the [D]color, look in[A]side of me[E]
[F#m] Tell me all[G#/E] you need [A] and [C#/A]I will t[D]-ry
[C#/E] I [B/D] will try[Esus7]

(Chorus)
I'm going to lo[A]ve__ you more[F#m7] than anyone[D][E]
I'm going to ho[A]ld__ you closer[F#m7] [E]than before[A]
And when I ki[D]ss your s[C#/E]oul, your body'll [B/D]be free
I'll be [Esus7]free for you [E]any-[F#m7]time
I'm going to l[D]ove you m[E]ore than a[A]nyone

[G]Free for you, whenever you ne[A]ed
[G]We'll be free together baby, [D]free together baby

(Chorus)
I'm going to lo[A]ve__ you more[F#m7] than anyone[D][E]
I'm going to ho[A]-o-o-old_ you clos[F#m7]er [E] than before[A]
And when I ki[D]ss your s[C#/E]oul, your body'll [B/D]be free
I'll be [Esus7]free for you [E]any-[F#m7]time
I'm going to l[D]ove you m[E]ore than a[A]nyone
I'm going to l[D]ove you m[E]ore than a[A]nyone

Tabbed by Hugh Fuve

[E] [D] [A] [C#/D] [D5] [C#/E] [B/D] [Esus7] [F#m] [F#m7] [G#/E] [C#/A]

E|--x--x--x---x-----x-----x-----x------0------2------2------x------x|
B|--9--7--x---x-----x-----5-----3------3------2------2------5------2|
G|--9--7--6---x-----x-----4-----2------2------2------2------4------2|
D|--9--7--7---7-----7-----0-----0------0------4------2------2------2|
A|--7--5--x---4-----5-----4-----2------2------4------4------x------4|
E|--0--x--5---x-----x-----x-----x------0------2------2------4------x|


...when I kiss your soul ...

[D] [C#/E] [B/D] [Esus7] [E] [F#m7]

E|------2-------?-----?----0------0----2|
B|------3-------5-----3----3------0----2|
G|------2-------4-----2----2------1----2|
D|------0-------0-----0----0------2----2|
A|------0-------4-----2----2------2----4|
E|------0-------x-----x----0------0----2|

Chords List

Chord: More Than Anyone - Gavin DeGraw - tab, song lyric, sheet, guitar, ukulele
Maybe you like