Chord/Tab song: Moons and Horror Shows - The Zutons

Chord,Tablature, lyric, sheet, guitar, ukulele song: Moons and Horror Shows - The Zutons - ( Moons And Horror Shows - The Zutons Tabbed by: The Ph...)

--

-------------------------------------------------------------------------------

Moons And Horror Shows - The Zutons


-------------------------------------------------------------------------------

Tabbed by: The Phwbt

Tuning: Standard

C/G 332010 (I actually like to play a C and alternate my ring finger between
the A and E strings)
G7 320001
Dm/A x00231

This song is pretty easy. It follows the C/G, G7, Dm/A, C/G pattern almost throughout.
To go with the song you basically thumb pluck the bass notes and strum the rest of the
chord (Strum once or twice depending on your preference until you slow it down at the
end. Then you need to strum twice).

[C/G] [G7] [Dm/A] [C/G]

e|----0----0-----0----0--|---1----1-----1----1--|---1----1----1----1--|---0----0-----0---0--|
B|----1----1-----1----1--|---0----0-----0----0--|---3----3----3----3--|---1----1-----1---1--|
G|----0----0-----0----0--|---0----0-----0----0--|---2----2----2----2--|---0----0-----0---0--|
D|----2----2-----2----2--|---0----0-----0----0--|-0---------0---------|---2----2-----2---2--|
A|-3-----------3---------|-2----------2---------|------0---------0----|-3----------3--------|
E|-------3----------3----|------3----------3----|---------------------|------3----------3---|


( Tab from: http://www.guitartabs.cc/tabs/z/zutons/moons_and_horror_shows_crd_ver_2.html )
Intro: C/G G7 Dm/A
[C/G]Today is a day when many fine things will co[G7]me
[Dm/A]Today is just a memory tom[C/G]orrow

I know that there's some bad things to come
But I'll forget them all until tomorrow
The days are long and nights don't come at all
We eat and drink and then we fall asleep
And then I dream of moons and horror shows
And then I'll wake up fresh and new tomorrow
Then I dream of moons and horror shows
And then I'll wake up fresh and new tomorrow

(F)Hmmmm... (D) Hmmmm (F)Hmmmm... (D) Hmmmm

(F)Hmmmm... (D) Hmmmm (G)Hmmmmmmmmmmmmm...

Then throw this in nice and slow


e|-------------|
B|-------------|
G|-------------|
D|-------------|
A|-----0---2---|
E|--3----------|

And pick up with.....

[C/G]Then I dream of moons and horror sh[G7]ows
[Dm/A]And then I'll wake up fresh and new to[C/G]morrow

And finally end with...

[C/G]

e|-----0--0-------0--0-----------0--------|
B|-----1--1-------1--1-----------1--------|
G|-----0--0-------0--0-----------0--------|
D|-----2--2-------2--2-----------2--------|
A|--3--------------------3-------3--------|
E|------------3--------------3------------|


Enjoy

Chords List

Chord: Moons and Horror Shows - The Zutons - tab, song lyric, sheet, guitar, ukulele
Maybe you like