Chord/Tab song: Millions - Gerard Way

Chord,Tablature, lyric, sheet, guitar, ukulele song: Millions - Gerard Way - ( INTRO Guitar 1 (Play a G power chord for the whole intro,...)

--
INTRO
Guitar 1 (Play a G power chord for the whole intro, strum something like this)


e|---------------------------------------------------------------------------|
B|---------------------------------------------------------------------------|
G|-12~-12-12-12-12-12-12-----------------------------------------------------|
D|-12~-12-12-12-12-12-12-----------------------------------------------------|
A|-10~-10-10-10-10-10-10-----------------------------------------------------|
E|---------------------------------------------------------------------------|

Guitar 2 (The 14-12-14 has a style similar to the Nanana intro)


e|---------------------------------------------------------------------------|
B|---------------------------------------------------------------------------|
G|-----------------------------------------------(DO THIS)-------------------|
D|-------------------------------12--------------( X2 )-------------------|
A|-12-14~-14-12-14~-14-12-14~-14----14-12-10---------------------------------|
E|---------------------------------------------------------------------------|
e|---------------------------------------------------------------------------|
B|---------------------------------------------------------------------------|
G|---------------------------------------------------------------------------|
D|-12-(x4)-14-(x4)---------11-(x8)-10-(x4)-12-(x4)---------------------------|
A|-----------------10-(x8)---------------------------------------------------|
E|---------------------------------------------------------------------------|
e|---------------------------------------------------------------------------|
B|---------------------------------------------------------------------------|
G|-----------------------------------------------(DO THIS)-------------------|
D|-------------------------------12--------------( X2 )-------------------|
A|-12-14~-14-12-14~-14-12-14~-14----14-12-10---------------------------------|
E|---------------------------------------------------------------------------|
e|---------------------------------------------------------------------------|
B|---------------------------------------------------------------------------|
G|-----------------12-(x8)-14-14-12-12-------12-12-14-14-12-12-------14-12~--|
D|-12-(x4)-14-(x4)---------------------14-14-------------------14-14---------|
A|---------------------------------------------------------------------------|
E|---------------------------------------------------------------------------|


VERSE (Listen to song for the strumming)


e|----------------|-----------------------------------------------------------|
B|----------------|-----------------------------------------------------------|
G|-----5-------5--|----7------6--5--------(DO THIS)---------------------------|
D|-5---5---5---5--|-5--7--2---6--5--------( x2 )---------------------------|
A|-5---3---5---3--|-5--5--2---4--3--------------------------------------------|
E|-3-------3------|-3-----0---------------------------------------------------|

[G] [C] [G] [C] [G] [D] [Em] [C#] [C]
PRE-CHORUS (Listen to song for the strumming)


e|---------------------------------------------------------------------------|
B|---------------------------------------------------------------------------|
G|-----5--7----(DO THIS)-----------------------------------------------------|
D|-2---5--7----( x2 )-----------------------------------------------------|
A|-2---3--5------------------------------------------------------------------|
E|-0-------------------------------------------------------------------------|

[Em] [C] [D]
CHORUS


e|---------------------------------------------------------------------------|
B|---------------------------------------------------------------------------|
G|----5---------5--------(DO THIS)-------------------------------------------|
D|-5--7--2---7--5--------( x2 )-------------------------------------------|
A|-5--5--2---7--3------------------------------------------------------------|
E|-3-----0---5---------------------------------------------------------------|

[G] [D] [Em] [A] [C]
POST-CHORUS
Guitar 1 (Play a G power chord for the whole post-chorus)


e|---------------------------------------------------------------------------|
B|---------------------------------------------------------------------------|
G|-12~-12-12-12-12-12-12-----------------------------------------------------|
D|-12~-12-12-12-12-12-12-----------------------------------------------------|
A|-10~-10-10-10-10-10-10-----------------------------------------------------|
E|---------------------------------------------------------------------------|


Guitar 2


e|---------------------------------------------------------------------------|
B|---------------------------------------------------------------------------|
G|-----------------------------------------------(DO THIS)-------------------|
D|-------------------------------12--------------( X2 )-------------------|
A|-12-14~-14-12-14~-14-12-14~-14----14-12-10---------------------------------|
E|---------------------------------------------------------------------------|


VERSE (Listen to song for the strumming)


e|----------------|-----------------------------------------------------------|
B|----------------|-----------------------------------------------------------|
G|-----5-------5--|----7------6--5--------(DO THIS)---------------------------|
D|-5---5---5---5--|-5--7--2---6--5--------( x2 )---------------------------|
A|-5---3---5---3--|-5--5--2---4--3--------------------------------------------|
E|-3-------3------|-3-----0---------------------------------------------------|

[G] [C] [G] [C] [G] [D] [Em] [C#] [C]
PRE-CHORUS (Listen to song for the strumming)


e|---------------------------------------------------------------------------|
B|---------------------------------------------------------------------------|
G|-----5--7----(DO THIS)-----------------------------------------------------|
D|-2---5--7----( x2 )-----------------------------------------------------|
A|-2---3--5------------------------------------------------------------------|
E|-0-------------------------------------------------------------------------|

[Em] [C] [D]
CHORUS


e|---------------------------------------------------------------------------|
B|---------------------------------------------------------------------------|
G|----5---------5--------(DO THIS)-------------------------------------------|
D|-5--7--2---7--5--------( x2 )-------------------------------------------|
A|-5--5--2---7--3------------------------------------------------------------|
E|-3-----0---5---------------------------------------------------------------|

[G] [D] [Em] [A] [C]
BRIDGE/OUTRO (Kinda hard to hear, but something along these lines)


e|--------------------------------------------------------------------------|
B|-----(DO THIS x4)---------------------------------------------------------|
G|--------------------------------------------------------------------------|
D|-14-14-12-12-------12-12--------------------------------------------------|
A|-------------14-14--------------------------------------------------------|
E|--------------------------------------------------------------------------|
e|---------------------------------------------------------------------------|
B|---------------------------------------------------------------------------|
G|-----------------12-(x8)-14-14-12-12-------12-12-14-14-12-12-------14-12~--|
D|-12-(x4)-14-(x4)---------------------14-14-------------------14-14---------|
A|---------------------------------------------------------------------------|
E|---------------------------------------------------------------------------|
e|--------------------------------------------------------------------------|
B|-----(DO THIS x4)---------------------------------------------------------|
G|--------------------------------------------------------------------------|
D|-14-14-12-12-------12-12--------------------------------------------------|
A|-------------14-14--------------------------------------------------------|
E|--------------------------------------------------------------------------|
e|---------------------------------------------------------------------------|
B|---------------------------------------------------------------------------|
G|-----------------12-(x8)-14-14-12-12-------12-12---14-12-14-12-14-12-14-12-|
D|-12-(x4)-14-(x4)---------------------14-14---------------------------------|
A|---------------------------------------------------------------------------|
E|---------------------------------------------------------------------------|


(You have to pick the 14 really fast and bend up and release twice)


e|---------------------------------------------------------------------------|
B|------------------------------------------------15-15-15-15----------------|
G|-14br-14br--12-12-12-12-14-14-14-14-16-16-16-16-------------12~------------|
D|---------------------------------------------------------------------------|
A|---------------------------------------------------------------------------|
E|---------------------------------------------------------------------------|

Chords List

Chord: Millions - Gerard Way - tab, song lyric, sheet, guitar, ukulele
Maybe you like