Chord/Tab song: Microscopic View of a Telescopic Realm - Tourniquet

Chord,Tablature, lyric, sheet, guitar, ukulele song: Microscopic View of a Telescopic Realm - Tourniquet - ( Tourniquet - Microscopic View of a Telescopic Realm off...)

--
Tourniquet - Microscopic View of a Telescopic Realm


off the album 'Microscopic View of a Telescopic Realm'

tabbed by the bass playing sheep...

Ok well, I haven't seen many Tourniquet tabs, so I thought I'd give it a go.

Yeah, it's not 100%, but I do play bass after all lol:P
and I haven't tabbed the solo, if anyone can help with it, mail me at sheep611@gmail.com

Order of the riffs are at the end

Enjoy!

drop D tuning

legend:


-------


pm... - palm mute
h p - hammer-on/ pull-off
/ - slide
g - grace note: hammer-on/slide

\|/ - triplet
[3]
br - bend then release

riff 1:


-------
e|--------|--------|--------|--------|--------|--------|--------|--------|
B|--------|--------|--------|--------|--------|--------|--------|--------| guitar 1
G|--------|--------|--------|--------|--------|--------|--------|--------|
D|--------|--------|--------|--------|--------|--------|--------|--------|
A|-777777-|-777777-|-333333-|-333333-|-000000-|-000000-|-222222-|-222222-|
D|-777777-|-777777-|-333333-|-333333-|-000000-|-000000-|-222222-|-222222-|

| |
| |


e|--------|--------|--------|--------|--------|--------|--------|--------|
B|--------|--------|--------|--------|--------|--------|--------|--------| guitar 2
G|-999999-|-999999-|-555555-|-555555-|-222222-|-222222-|-444444-|-444444-|
D|-777777-|-777777-|-333333-|-333333-|-000000-|-000000-|-222222-|-222222-|
A|--------|--------|--------|--------|--------|--------|--------|--------|
D|--------|--------|--------|--------|--------|--------|--------|--------|


riff 2a (Guitar 1):


-------------------
e|---------------|---------------|----------------|----------------|
B|---------------|---------------|----------------|----------------|
G|--------9------|--------9------|--------10------|--------10------|
D|-7-9-10---10-9-|-7-9-10---10-9-|-7-9-10----10-9-|-7-9-10----10-9-|
A|---------------|---------------|----------------|----------------|
D|---------------|---------------|----------------|----------------|
e|---------------|---------------|----------------|----------------|
B|---------------|---------------|----------------|----------------|
G|--------7------|--------7------|----------7-9---|----------7-9---|
D|-7-9-10---10-9-|-7-9-10---10-9-|-6-7-9-10-------|-6-7-9-10-------|
A|---------------|---------------|----------------|----------------|
D|---------------|---------------|----------------|----------------|


riff 2b (guitar 2):


-------------------
e|-------------|-------------|-------5-----|-------5-----|
B|-----5-8-5---|-----5-8-5---|-----5---5---|-----5---5---|
G|-5-7-------7-|-5-7-------5-|-5-7-------7-|-5-7-------7-|
D|-------------|-------------|-------------|-------------| not 100% sure bout this
A|-------------|-------------|-------------|-------------|
D|-------------|-------------|-------------|-------------|
e|-------------|-------------|-------------|-------------|
B|-----5-6-5---|-----5-6-5---|-------5-6-8-|-------5-6-8-|
G|-5-7-------7-|-5-7-------7-|-4-5-7-------|-4-5-7-------|
D|-------------|-------------|-------------|-------------|
A|-------------|-------------|-------------|-------------|
D|-------------|-------------|-------------|-------------|


fill (both guitars):


--------------------
e|-----------------|
B|-----------------|
G|-----------------|
D|-----------------|

A|-777-666-555-333-|
D|-777-666-555-333-|

riff 3 (both guitars): note: only guitar 2 plays the little fills


----------------------
e|--------------|---------------------|---------------------|-----------------------|
B|--------------|---------------------|---------------------|-----------------------|
G|--------------|---------------------|---------------------|-----------------------|
D|-0---7--7-/---|------------5--5-/---|------------3--3-/---|-----------------------|
A|-0---5--5-/---|-0h5-8-7-/--3--3-/---|-0h3-7-5-/--1--1-/---|-0h1-5-4-/--7--7-00053-|
D|-0------------|---------------------|---------------------|------------7--7-00053-|

pm ...



e|--------------|---------------------|---------------------|-----------------------|
B|--------------|---------------------|---------------------|-----------------------|
G|--------------|---------------------|---------------------|-----------------------|
D|-0---7--7-/---|-----2-3g5--5--5-/---|-----0-1g3--3--3-/---|-------0g2-------------|
A|-0---5--5-/---|-0h5--------3--3-/---|-0h3--------1--1-/---|-0h1-3------7--7----7--|
D|-0------------|---------------------|---------------------|------------7--7----7--|


riff 4 (both guitars):


----------------------
e|-------------|---------------|-------------|---------------|
B|-------------|---------------|-------------|---------------|
G|-------------|---------------|-------------|---------------|
D|-------------|---------------|-------------|---------------|
A|-7--777--7-7-|-7--777--7-7-7-|-3--333--3-3-|-3--333--3-3-3-|
D|-7--777--7-7-|-7--777--7-7-7-|-3--333--3-3-|-3--333--3-3-3-|

pm . ... . ... . . ... ... .
\|/ \|/ \|/ \|/
[3] [3] [3][3]



e|-------------|---------------|-------------|---------------|
B|-------------|---------------|-------------|---------------|
G|-------------|---------------|-------------|---------------|
D|-------------|---------------|-------------|---------------|
A|-0--000--0-0-|-0--000--0-0-0-|-2--222--2-2-|-2--222--2-2-2-|
D|-0--000--0-0-|-0--000--0-0-0-|-2--222--2-2-|-2--222--2-2-2-|

pm . ... . ... . . ... ... .
\|/ \|/ \|/ \|/
[3] [3] [3][3]

riff 5:


-------
e|-----------------------------------------------------|
B|-----------------------------------------------------| awesome! :D
G|-----------------------------------------------------|
D|---------------------------3-3----------5-5----------|
A|-0-0-00-------0-0-00-------1-1-00-------3-3-00-------|
D|-0-0-00-3h2h0-0-0-00-0h2h3-----00-0h3h5-----00-0h2h3-|

pm .. .. .. ..


riff 6 (both guitars):


----------------------
e|-------------------------------------------------------|
B|-------------------------------------------------------|
G|-------------------------------------------------------|
D|-------------------------------------------------7--7--|
A|-0--00-0h2h4---6--00-0h2h4---6--00-0h2h4---6-----7--7--|
D|-0--00-0h2h4p0-6--00-0h2h4p0-6--00-0h2h4p0-6--00-7--7--|

pm .. .. .. ..


riff 7 (guitar 1):


------------------


let ring


e|-----------------------------------|
B|-----------------------------------|
G|-----7--------------7--------------|
D|-0---7--------3--0--7--------------|
A|-0---5--------3--0--5--------------|
D|-0------------3--0-----------------|


riff 8a (guitar 2):


-------------------


let ring


e|---------------|-------------------------------|--------------|-------------------------|
B|---------------|-------------------------------|--------------|-------------------------|
G|---------------|-------------------------------|--------------|-------------------------|
D|---------------|-------------------------------|--------------|-------------------------|
A|-0-5-7-7g8~----|-0-5-7-7g8-10p8p7--5-3h5p3-1---|---3-5-5g7----|---3-5-5g7-8-7-3-7-7/5---|
D|---------------|-------------------------------|-5------------|-5-----------------------|


riff 8b (guitar 1):


-------------------
e|---------------|-------------------------------|--------------|-------------------------|
B|---------------|-------------------------------|--------------|-------------------------|
G|---------------|-------------------------------|--------------|-------------------------|
D|---3-5-5g7~----|---3-5-5g7-5-8p7p5-3-2h3p2-0---|---2-3-3g5----|---2-3-3g5-7-5-2-5-5/3---|
A|-3-------------|-3-----------------------------|-3------------|-3-----------------------|
D|---------------|-------------------------------|--------------|-------------------------|


Riff 7 (guitar 2):


------------------
e|-------------------|----------------------|
B|-------------------|----------------------|
G|-797----7----------|----------------------|
D|-----10---10-9-7---|-676---7-6br----------|
A|-------------------|-----8-------8-7------|
D|-------------------|----------------------|


ending (both guitars):


----------------------
e|------------------------------------|
B|------------------------------------|
G|------------------------------------|
D|-7-------------------------------0--| just mess with this :P
A|-5-------------------------------0--|
D|-0-------------------------------0--|


Order:


------


riff 1 X2
riff 2a
riff 2a + riff 2b
riff 1 X2 (palm mute the second time)
riff 3
riff 4 X3
riff 3
riff 1 X2 (palm mute the first time)
riff 5 X8 (first four times just guitar 1)
riff 6 X4
riff 5 X4
riff 6 X4
riff 4 X4 (solo over this)
riff 6 X2 (slow down at the end of the repeat)
riff 7
riff 8a
riff 8a + riff 8b X2 (second time, transpose up a tone.. I think lol)
Riff 1
riff 4 X4
riff 7
ending

thats it... hope you like!

Chords List

Chord: Microscopic View of a Telescopic Realm - Tourniquet - tab, song lyric, sheet, guitar, ukulele
Maybe you like