Chord/Tab song: Lights And Stones (failed - reindex) - The Word Alive

Chord,Tablature, lyric, sheet, guitar, ukulele song: Lights And Stones (failed - reindex) - The Word Alive - ( Hey so this is my first tab and I learned it by ear so be...)

a year ago132 The Word Alive
--
Hey so this is my first tab and I learned it by ear so bear with me guys. I did my best
and I think I did pretty good for my first tab. Leave comments and feedback!

Lights and Stones-The Word Alive
Album: Deceiver
Tuning: Drop B
Legend: x-Tremolo picking amount
/-Slide
-Palm Mutes
^-Bend Upward
h-Hammer-On
~-Let Ring
Lead Guitar
[0:00-0:13]


-21(x16)--------19(x16)--------18(x16)--------19(x9)--------17(x9)--------|
--------------------------------------------------------------------------|
--------------------------------------------------------------------------|
--------------------------------------------------------------------------|
--------------------------------------------------------------------------|
--------------------------------------------------------------------------| x2


[0:14-0:20]


--------------------------------------------------------------------------|
--------------------------------------------------------------------------|
--------------------------------------------------------------------------|
-8-----------8/9---------------3/1----------------------------------------|
-5------0000-5/6------00-------3/1-------0000-------000000----------------|
--------0000----------00-------3/1-------0000-------000000----------------|



Repeat but second time end with this amount of palm mutes instead of 6.


-----------------|
-----------------|
-----------------|
-----------------|
---0000----------|
---0000----------|


[0:21-0:34]


--------------------------------------------------------------------------|
----------------------------------------------------12(x8)11(x8)----------|
-888888888888888888888888^88888888-8888888888888888-----------------------|
--------------------------------------------------------------------------|
--------------------------------------------------------------------------|
--------------------------------------------------------------------------| x2


[0:35-0:50]


-----12-11-12-11------12-11-12-11------11h12h13---|
-----------------11-10------------11-10-----------|
--------------------------------------------------|
--------------------------------------------------|
--------------------------------------------------|
--------------------------------------------------| x9


[0:51-1:04]


--20(x16)--19(x16)--------------------------------|
------------------19(x10)/21(x4)/18(x16)----------|
--------------------------------------------------|
--------------------------------------------------|
--------------------------------------------------|
--------------------------------------------------| x2


[1:05-1:19]


--19(x8)-18(x8)--------19(x8)-18(x8)-------19(x8)-18(x8)------------------|
----------------16(x16)-------------18(x16)-------------16(x16)-----------|
--------------------------------------------------------------------------|
--------------------------------------------------------------------------|
--------------------------------------------------------------------------|
--------------------------------------------------------------------------|
--19(x4)-18(x4)------18(x6)--19(x4)-18(x4)------19(x6)---------------------|
---------------16(x4)---------------------16(x4)---------------------------|
---------------------------------------------------------------------------|
---------------------------------------------------------------------------|
-------------------------------------------------------------------000 000-|
-------------------------------------------------------------------000-000-|



[1:20-1:33](Probably wayyy off, but I did my best)


--------------------------------------------------------------------------|
--------------------------------------------------------------------------|
--------------------------------------------------------------------------|
--------------------------------------------------------------------------|
-00-0000-0-00-00--0--0-0-00--0-000000--0-00-00-0--0-0-00------------------|
-00-0000-0-00-00--0--0-0-00--0-000000--0-00-00-0--0-0-00-----------------| x2



[1:34-1:37]


-----------------------------------------------|
-----------------------------------------------|
-----------------------------------------------|
-8-----------8/9---------------3/1-------------|
-5------0000-5/6------00-------3/1-------0000--|
--------0000----------00-------3/1-------0000--|



[1:38-1:52]


--------------------------------------------------------------------------|
----------------------------------------------------12(x8)11(x8)----------|
-888888888888888888888888^88888888-8888888888888888-----------------------|
--------------------------------------------------------------------------|
--------------------------------------------------------------------------|
--------------------------------------------------------------------------| x2


[1:53-1:59]


--------------------------------------------------------------------------|
--------------------------------------------------------------------------|
--------------------------------------------------------------------------|
--7h8--8/9--3/1---------------------------7h8--8/9--3/1--000-000----------|
--7h8--8/9--3/1--0-0-0-0-0-0-0-0-0-0-000--7h8--8/9--3/1--000-000----------|
--7h8--8/9--3/1--0-0-0-0-0-0-0-0-0-0-000--7h8--8/9--3/1--000-000----------|



[2:00-2:06]


--------------------------------------------------------------------------|
--------------------------------------------------------------------------|
--------------------------------------------------------------------------|
--7h8--8/9--3/1--1^-000-000--7h8--8/9--3/1--------------------------------|
--7h8--8/9--3/1--1--000-000--7h8--8/9--3/1--------------------------------|
--7h8--8/9--3/1--1--000-000--7h8--8/9--3/1----0000000000000000------------|



[2:07-2:20]


--/20(x16)--19(x16)--------------------------------|
-------------------19(x10)/21(x4)/18(x16)----------|
---------------------------------------------------|
---------------------------------------------------|
---------------------------------------------------|
---------------------------------------------------| x2


[2:21-2:34]



--19(x8)-18(x8)--------19(x8)-18(x8)-------19(x8)-18(x8)------------------|
----------------16(x16)-------------18(x16)-------------16(x16)-----------|
--------------------------------------------------------------------------|
--------------------------------------------------------------------------|
--------------------------------------------------------------------------|
--------------------------------------------------------------------------|
--19(x4)-18(x4)------18(x6)--19(x4)-18(x4)------19(x6)--------------------|
---------------16(x4)---------------------16(x4)--------------------------|
--------------------------------------------------------------------------|
--------------------------------------------------------------------------|
--------------------------------------------------------------------------|
--------------------------------------------------------------------------|


[2:35-2:48]


-------------------------------------------|
-------------------------------------------|
--------4~------3~-------4~------3~--------|
---4~------4~-------4~------4~-------------|
-1~------1~-------1~------1~---------------|
-------------------------------------------|


[2:49-3:03]


--------------------------------------------------------------------------|
--------------------------12-12-12-12-12-12-12-12-11-11-11-11-11-11-11-11-|
--8-8-8-8-8-8-8-8-8-8-8-8-------------------------------------------------|
--------------------------------------------------------------------------|
--------------------------------------------------------------------------|
--------------------------------------------------------------------------|


[3:04-3:17]


------19(x16)-16(x16)-19(x16)-18(x16)-19(x16)-16(x16)-19(x16)-18(x16)-----|
--------------------------------------------------------------------------|
--------------------------------------------------------------------------|
--------------------------------------------------------------------------|
--------------------------------------------------------------------------|
--------------------------------------------------------------------------|


[3:18-3:31]


--19(x8)-18(x8)--------19(x8)-18(x8)-------19(x8)-18(x8)------------------|
----------------16(x16)-------------18(x16)-------------16(x16)-----------|
--------------------------------------------------------------------------|
--------------------------------------------------------------------------|
--------------------------------------------------------------------------|
--------------------------------------------------------------------------|
--19(x4)-18(x4)------18(x6)--19(x4)-18(x4)------19(x6)--------------------|
---------------16(x4)---------------------16(x4)--------------------------|
--------------------------------------------------------------------------|
--------------------------------------------------------------------------|
--------------------------------------------------------------------------|


[3:32-3:45]


-21(x16)--------19(x16)--------18(x16)--------19(x9)--------17(x9)--------|
--------------------------------------------------------------------------|
--------------------------------------------------------------------------|
--------------------------------------------------------------------------|
--------------------------------------------------------------------------|
--------------------------------------------------------------------------| x2


[3:46-END]


------------------------------------------------------|
------------------------------------------------------|
------------------------------------------------------|
------------------------------------------------------|
-0--0-0-00-00--0000-0-0-00-00-00-0-0-00-00-000-000----|
-0--0-0-00-00--0000-0-0-00-00-00-0-0-00-00-000-000----|

Chords List

Chord: Lights And Stones (failed - reindex) - The Word Alive - tab, song lyric, sheet, guitar, ukulele
Maybe you like